Черный Кофе - Отчаяние, аккорды

Прокрутка
Тональность
Шрифт
100
Riff (1):
E|-----------------------------
B|-----------------------------
G|-----------------------------
D|-----------------------------
A|-0-0-0-0-0-0-0-0-0-0-0---1-3-
D|-0-0-0-0-0-0-0-0-0-0-0---1-3-

Riff (2):
E|-------------
B|-------------
G|-------------
D|-------------
A|-3--5---4-0--
D|-3--5---4-0--

  Riff (1)
Одиночество - невидимый враг,
Одиночество - задушенный страх.
Одиночество среди тленных тел,
Одиночество - спасенья удел.

Припев:
  F5       G5
А в суете никчемных слов
  A5
Мира мертвая плоть
 Riff (1)
Внимает отчаяние... 
            Riff (2)
И так две тысячи лет!

Электричество - казалось бы друг,
Но напряжение падает вдруг...
Рассыпается осколками мир,
Виртуальный закончился пир... 

Припев:
А между строк,
Между листов
Свято хранится любовь
Две тысячи лет!

А в твоих глазах распята любовь,
Настоящая большая любовь. 
И отчаяние срывается в крик,
Оглушающий сердца крик.

Припев:
Из суеты никчемных дел 
Спасенье и есть твой удел: 
Разрушить отчаяние!
Две тысячи лет...
Разрушить отчаяние!
 
 
Свернуть Распечатать

Видео