Черный Кофе - Время, аккорды

Прокрутка
Тональность
Шрифт
100
 Время тронется, и пусть
E|-------0------------0------
B|-----0--0---------0--0-----
G|---0-----0---0--0-----0--0-
D|-2---------2---1--------1--
A|---------------------------
E|---------------------------

 Лёгким будет долгий путь тебе
E|-------1------------0------
B|-----0--0---------0--0-----
G|---0-----0---0--0-----0--0-
D|-4---------4---2--------2--
A|---------------------------
E|---------------------------

Херувимы запоют
E|-------0------------0------
B|-----0--0---------0--0-----
G|---0-----0---0--0-----0--0-
D|-2---------2---1--------1--
A|---------------------------
E|---------------------------

 Силы прежние вернут себе...
E|-------1------------0------
B|-----0--0---------0--0-----
G|---0-----0---0--0-----0--0-
D|-4---------4---2--------2--
A|---------------------------
E|---------------------------

 Am                       Em
Пой Цареве, пой! Вся земля со мной!
 C              D          G
И сердца чисты, как этот снег.
 Am
Первый, первый снег,
 Em
Белый, белый свет: 
 C            D7
Наяву и во сне.

Припев:
     G       
Да смешались слова,
      Am            Em
Время движется к нам,
       C                  D G
Вместе с ним пролетели века.
  G
Звёзды смотрят в глаза
 Am         Em
И поют небеса!
    C                   D G Gmaj
И течёт вечной жизни река.

Пыльных тысячи дорог...
E|-------0------------0------
B|-----0--0---------0--0-----
G|---0-----0---0--0-----0--0-
D|-2---------2---1--------1--
A|---------------------------
E|---------------------------

Гонит ветер за порог печаль.
E|-------1------------0------
B|-----0--0---------0--0-----
G|---0-----0---0--0-----0--0-
D|-4---------4---2--------2--
A|---------------------------
E|---------------------------

Лёгкой птицей в небеса
E|-------0------------0------
B|-----0--0---------0--0-----
G|---0-----0---0--0-----0--0-
D|-2---------2---1--------1--
A|---------------------------
E|---------------------------

Улетают голоса: прощай!
E|-------1------------0------
B|-----0--0---------0--0-----
G|---0-----0---0--0-----0--0-
D|-4---------4---2--------2--
A|---------------------------
E|---------------------------

 Am                       Em
Пой Цареве, пой! Вся земля со мной!
 C              D          G
И сердца чисты, как этот снег.
 Am
Первый, первый снег,
 Em
Белый, белый свет: 
 C          D7
наяву и во сне.

Припев:
     G       
Да смешались слова,
      Am            Em
Время движется к нам,
       C                  D G
Вместе с ним пролетели века.
  G
Звёзды смотрят в глаза
 Am         Em
И поют небеса!
    C                   D G Gmaj
И течёт вечной жизни река!
 
 
Свернуть Распечатать

Видео