Черный Кофе - Радуга, аккорды

Прокрутка
Тональность
Шрифт
100
Intro:
   Dsus2   D6
e|----0-------2----
B|---3-3-3---0-0-0-
G|--2---2---2---2--
D|-0-------0-------
A|----------------- x2
E|-----------------

   D                    A
В небе угасали краски дня
Bm                     F#m
И остался город без огня
 G                       D
Там в ночи осколками звеня
 Em                  A
Раскололась Чаша Бытия

  D                   A
Где-то высоко над землёй 
 Bm                  F#m
Ветер поиграет с грозой
G                       D
Он легко управится с бедой 
Em                      A
И украсит небо над страной 

      G   D           A
     Нарисует в небе радугу
       Em     A
     Света дугу
     G     D          A
     А за ней дорога радости
       G           A
     Кто увидел обрадуйтесь

  D                      A
Кто пойдёт за радугой-дугой 
 Bm                     F#m
По лугам с душистой травой
  G                   D
Кто обрящет мир да покой
 Em             A
Напоит живою водой
 
      G   D           A
     Нарисует в небе радугу
       Em     A
     Света дугу
     G     D          A
     А за ней дорога радости
       G           A
     Кто увидел обрадуйтесь

Outro:
   G               D  Em   A
e|-3-2-0-------2-0-----2-3-5-
B|-------3-2-3-----3--5------
G|---------------------------
D|---------------------------
A|---------------------------
E|---------------------------

   Dsus2   D6
e|----0-------2----
B|---3-3-----0-0---
G|--2---2---2---2--
D|-0-----0-0-----0-
A|----------------- x2
E|-----------------
 
 
Свернуть Распечатать

Видео