Черный Кофе - Владимирская Русь, аккорды

Прокрутка
Тональность
Шрифт
100
Riff Em
E|---------------------------------
B|---------------------------------
G|---------------------------------
D|-----5-----5-----7-----5-----4/5-
A|-----7-----7-----9-----7-----5/7-
E|-0-0---0-0---0-0---0-0---0-0-----

Riff Am
E|----------------------------------
B|----------------------------------
G|-----5-----7-----9------7-----4/5-
D|-----7-----9-----10-----9-----5/7-
A|-0-0---0-0---0-0----0-0---0-0-----
E|----------------------------------

     Em
Деревянные церкви Руси
     Em
Перекошены древние стены
      Am
Подойди и о многом спроси
         Am
В этих срубах есть сердце и вены

     Em
Заколочено накрест окно
      Em
Молчаливо убого убранство
      Am
Но зато старым стенам дано
        Am
Мерить душу с простым постоянством

     Em      G      D
Левитан оставался один
      Em        G         D
Если кисть замирала в застое
      Am
И тогда среди многих картин
          Am
Вдруг рождалась "Над вечным покоем"

        Em
На холсте небольшая деталь
          Em
Церковь старая на косогоре
      Am
И видна необъятная даль
      Am
На былинно-бескрайнем просторе

      Em
Старорусский народный обряд
      Em
Неподкупная гордость людская
     Am
Деревянные церкви стоят
     Am
Это жизнь без конца и без края

     Em
Деревянные церкви Руси
     Em
Перекошены древние стены
      Am
Подойди и о многом спроси
         Am
В этих срубах есть сердце и вены
 
 

Видео