Черный Кофе - Церквушки, аккорды

Прокрутка
Тональность
Шрифт
100
Вступление:
   F                                 Am
E|----------------|----------------|----------------|----------------|
B|-------0--1-0---|-------0--1-0---|-------0--1-0---|-------0--1-0---|
G|----2---------2-|----2---------2-|----2---------2-|----2---------2-| 
D|-3--------------|-3--------------|-2--------------|-2--------------| x2 
A|----------------|----------------|----------------|----------------|
E|----------------|----------------|----------------|----------------|

F                        Am
Стоят церквушки по Руси забытые, забитые.
F                        Am
Стоят церквушки по Руси ничем не знаменитые
F                        Am
Стоят одни на пустырях, другие плачут у дорог.
F                        Am
Забыли люди о церквях, забыли люди Рок.

           Dm                   G
	   Не блещут златом купола
   	   E                Am  
	   И скошен набок крест,
           Dm                G
	   И не звонят колокола,
           E
	   И правит миром Бес.

Проигрыш = вступление:
   F                                 Am
E|----------------|----------------|----------------|----------------|
B|-------0--1-0---|-------0--1-0---|-------0--1-0---|-------0--1-0---|
G|----2---------2-|----2---------2-|----2---------2-|----2---------2-| 
D|-3--------------|-3--------------|-2--------------|-2--------------| x2 
A|----------------|----------------|----------------|----------------|
E|----------------|----------------|----------------|----------------|

F                        Am
Вздыхают горько но молчат, да неустанно молятся
F                        Am
И верят будет жив солдат, и лед однажды тронется.

        Dm               G
	И засверкают купола,
        E               Am  
	Украсит небо крест.
        Dm               G
	И зазвонят колокола,
        E               
	Жених грядет окрест.

F                        Am
Стоят церквушки по Руси, стоят церквушки у дорог.
F                        Am
Забыли люди о любви, забыли люди Рок.

        Dm               G
	Не блещут златом купола
        E               Am  
	И скошено в окрест,
        Dm               G
	И не звонят колокола,
        E               
	И правит миром Бес.

F                        Am
Стоят церквушки по Руси, стоят церквушки по Руси...
 
 
Свернуть Распечатать

Видео