Черный Обелиск - Аве Цезарь, аккорды

Прокрутка
Тональность
Шрифт
100
Riff 1:
E|------------------------------------------------------|
B|------------------------------------------------------|
G|------------------------------------------------------|
D|---2---2---------------------2---2--------------------|
A|---2---2---------------------2---2--------------------|
E|---0---0---5-3-2-3--5-3-2-3--0---0---5-3-2-3--5-3-2-3-|

E|--------------------------------------------------|
B|--------------------------------------------------|
G|--------------------------------------------------|
D|---2---2---------------------2---2------------2-2-|
A|---2---2---------------------2---2------------2-2-|
E|---0---0---5-3-2-3--5-3-2-3--0---0---5-3-2-3--0-0-|

Riff 2:
E|------------------------------------------|
B|------------------------------------------|
G|------------------------------------------|
D|---2---------4---------5---------4--------|
A|---2---------4---------5---------4--------|
E|---0--0-0-0--2--0-0-0--3--0-0-0--2--0-0-0-|

E|------------------------------------------|
B|------------------------------------------|
G|------------------------------------------|
D|---2---------4---------5---------7--------|
A|---2---------4---------5---------7--------|
E|---0--0-0-0--2--0-0-0--3--0-0-0--5--0-0-0-|

E|------------------------------------------|
B|------------------------------------------|
G|---2---------4---------5---------4--------|
D|---2---------4---------5---------4--------|
A|---0--0-0-0--2--0-0-0--3--0-0-0--2--0-0-0-|
E|------------------------------------------|

E|------------------------------------------|
B|------------------------------------------|
G|---2---------4---------5---------7--------|
D|---2---------4---------5---------7--------|
A|---0--0-0-0--2--0-0-0--3--0-0-0--5--0-0-0-|
E|------------------------------------------|

Riff 3:
E|-------------------------------------|
B|-------------------------------------|
G|-------------------------------------|
D|---2---------4---------9---7---5---4-| x2 
A|---2---------4---------7---5---3---2-|
E|---0--0-0-0--2--0-0-0----0---0---0---|

E|----------------------|    E|---------------|
B|----------------------|    B|---------------|
G|----------------------|    G|---------------|
D|--2-------2-------4/5-| x3 D|--2--2--2-2--2-|
A|--2-------2-------4/5-|    A|--2--2--2-2--2-|
E|--0--0-0--0--0-0--2/3-|    E|--0--0--0-0--0-|

Куплет: (bass)
G|--------------------------------------------------------------|
D|------------------------------0---2---3---2---0---2---3---5---|
A|0--2---3---2---0---2---3---5----0---0---0---0---0---0---0---0-|
E|-0---0---0---0---0---0---0---0--------------------------------|

       Аве Цезарь, друг сердечный
       Ну заходи давно заждались
       Нет не поздно, да конечно
       Не развязывай сандалей

       Брось ты эту табуретку
       Ей!!!принесите гостю кресло
       Он у нас бывает редко
       Так пускай понежит чресло

       Пей, замерз ты как собака.
       Угощайся. А, не курим.
       Ей вы там, кончайте плакать,
       Мы потом добалагурим.

E|---------------------------|
B|---------------------------|
G|---------------------------|
E|---2-------4-------5-----4-|
A|---2-------4-------5-----4-|
E|---0-------2-------3-----2-|
   Тут у нас такие гости

E|------------------------|
B|------------------------|
G|------------------------|
D|----2-----4-----4-----7-|
A|----2-----4-----5-----7-|
E|----0-----2-----3-----5-|
     Украшение компаний

E|-------------------------|
B|-------------------------|
G|----2--------4----5----4-|
D|----2--------4----5----4-|
A|----0--------2----3----2-|
E|-------------------------|
   Что, не спится на погосте

E|-----------------------|
B|-----------------------|
G|---2-------4----3----7-|
D|---2-------4----3----7-|
A|---0-------2----5----5-|
E|-----------------------|
    Или плохо закопали

E|-------------------------------------------|
B|-------------------------------------------|
G|-------------------------------------------|
D|-----2-------4------------5-------4--------|
A|-----2-------4------------5-------4--------|
E|--0--0--0-0--2--2-2-2--3--3--3-3--2--2-2-2-|
   Или совесть беспокоит

E|-------------------------------------------|
B|-------------------------------------------|
G|-------------------------------------------|
D|-----2-------4------------5-------7--------|
A|-----2-------4------------5-------7--------|
E|--0--0--0-0--2--2-2-2--3--3--3-3--5--5-5-5-|
     Иль соседи кровопийцы

E|-------------------------------------------|
B|-------------------------------------------|
G|-----2-------4------------5-------4--------|
D|-----2-------4------------5-------4--------|
A|--0--0--0-0--2--2-2-2--3--3--3-3--2--2-2-2-|
E|-------------------------------------------|
     Или что-нибудь такое

E|-------------------------------------------|
B|-------------------------------------------|
G|-----2-------4------------5-------7--------|
D|-----2-------4------------5-------7--------|
A|--0--0--0-0--2--2-2-2--3--3--3-3--5--5-5-5-|
E|-------------------------------------------|
     Что забыли летописцы

E|---------------------------|
B|---------------------------|
G|---------------------------|
E|---2-------4-------5-----4-|
A|---2-------4-------5-----4-|
E|---0-------2-------3-----2-|
       Или, может, не забыли?

E|------------------------|
B|------------------------|
G|------------------------|
D|----2-----4-----4-----7-|
A|----2-----4-----5-----7-|
E|----0-----2-----3-----5-|
    Да, писать про это тошно!

E|-------------------------|
B|-------------------------|
G|----2--------4----5----4-|
D|----2--------4----5----4-|
A|----0--------2----3----2-|
E|-------------------------|
    Знать за это и убили -

E|-----------------------|
B|-----------------------|
G|---2-------4----3----7-|
D|---2-------4----3----7-|
A|---0-------2----5----5-|
E|-----------------------|
    Император не святоша.

E|-------------------------------------------|
B|-------------------------------------------|
G|-------------------------------------------|
D|-----2-------4------------5-------4--------|
A|-----2-------4------------5-------4--------|
E|--0--0--0-0--2--2-2-2--3--3--3-3--2--2-2-2-|
   Без убийства он не может

E|-------------------------------------------|
B|-------------------------------------------|
G|-------------------------------------------|
D|-----2-------4------------5-------7--------|
A|-----2-------4------------5-------7--------|
E|--0--0--0-0--2--2-2-2--3--3--3-3--5--5-5-5-|
     Удержатся на маршруте.

E|-------------------------------------------|
B|-------------------------------------------|
G|-----2-------4------------5-------4--------|
D|-----2-------4------------5-------4--------|
A|--0--0--0-0--2--2-2-2--3--3--3-3--2--2-2-2-|
E|-------------------------------------------|
    А в тоске, на смертном ложе,

E|-------------------------------------------|
B|-------------------------------------------|
G|-----2-------4------------5-------7--------|
D|-----2-------4------------5-------7--------|
A|--0--0--0-0--2--2-2-2--3--3--3-3--5--5-5-5-|
E|-------------------------------------------|
    Ты мечтал о Марке Бруте?!
       
E|---------------------------|
B|---------------------------|
G|---------------------------|
E|---2-------4-------5-----4-|
A|---2-------4-------5-----4-|
E|---0-------2-------3-----2-|
    Да, мечтал, а вышел кукиш

E|------------------------|
B|------------------------|
G|------------------------|
D|----2-----4-----4-----7-|
A|----2-----4-----5-----7-|
E|----0-----2-----3-----5-|
    Эпитафией на прах мой.

E|-------------------------|
B|-------------------------|
G|----2--------4----5----4-|
D|----2--------4----5----4-|
A|----0--------2----3----2-|
E|-------------------------|
    Милосердия не купишь,

E|-----------------------|
B|-----------------------|
G|---2-------4----3----7-|
D|---2-------4----3----7-|
A|---0-------2----5----5-|
E|-----------------------|
    Не измеришь тетрадрахмой.

E|-------------------------------------------|
B|-------------------------------------------|
G|-------------------------------------------|
D|-----2-------4------------5-------4--------|
A|-----2-------4------------5-------4--------|
E|--0--0--0-0--2--2-2-2--3--3--3-3--2--2-2-2-|
    Милосердие для слабых,

E|-------------------------------------------|
B|-------------------------------------------|
G|-------------------------------------------|
D|-----2-------4------------5-------7--------|
A|-----2-------4------------5-------7--------|
E|--0--0--0-0--2--2-2-2--3--3--3-3--5--5-5-5-|
    Сильным - яду из флакона.

E|-------------------------------------------|
B|-------------------------------------------|
G|-----2-------4------------5-------4--------|
D|-----2-------4------------5-------4--------|
A|--0--0--0-0--2--2-2-2--3--3--3-3--2--2-2-2-|
E|-------------------------------------------|
    Мне бы слабость, я тогда бы

E|-------------------------------------------|
B|-------------------------------------------|
G|-----2-------4------------5-------7--------|
D|-----2-------4------------5-------7--------|
A|--0--0--0-0--2--2-2-2--3--3--3-3--5--5-5-5-|
E|-------------------------------------------|
    Не стоял у Рубикона.

E|---------------------------|
B|---------------------------|
G|---------------------------|
E|---2-------4-------5-----4-|
A|---2-------4-------5-----4-|
E|---0-------2-------3-----2-|
    Так почему же, боже правый,

E|------------------------|
B|------------------------|
G|------------------------|
D|----2-----4-----4-----7-|
A|----2-----4-----5-----7-|
E|----0-----2-----3-----5-|
    Ты играл со мною в прятки?!

E|-------------------------|
B|-------------------------|
G|----2--------4----5----4-|
D|----2--------4----5----4-|
A|----0--------2----3----2-|
E|-------------------------|
    Почему не дал отравы?!

E|-----------------------|
B|-----------------------|
G|---2-------4----3----7-|
D|---2-------4----3----7-|
A|---0-------2----5----5-|
E|-----------------------|
    Тише, Цезарь, все в порядке…

E|-------------------------------------------|
B|-------------------------------------------|
G|-------------------------------------------|
D|-----2-------4------------5-------4--------|
A|-----2-------4------------5-------4--------|
E|--0--0--0-0--2--2-2-2--3--3--3-3--2--2-2-2-|
    Ты у нас душа святая,

E|-------------------------------------------|
B|-------------------------------------------|
G|-------------------------------------------|
D|-----2-------4------------5-------7--------|
A|-----2-------4------------5-------7--------|
E|--0--0--0-0--2--2-2-2--3--3--3-3--5--5-5-5-|
    Ты борец не за награды.

E|-------------------------------------------|
B|-------------------------------------------|
G|-----2-------4------------5-------4--------|
D|-----2-------4------------5-------4--------|
A|--0--0--0-0--2--2-2-2--3--3--3-3--2--2-2-2-|
E|-------------------------------------------|
    Что, пора уже? Светает?

E|-------------------------------------------|
B|-------------------------------------------|
G|-----2-------4------------5-------7--------|
D|-----2-------4------------5-------7--------|
A|--0--0--0-0--2--2-2-2--3--3--3-3--5--5-5-5-|
E|-------------------------------------------|
    Ну, заходи, мы будем рады...
 
 
Свернуть Распечатать

Видео