Chevelle - Wonder Whats Next, аккорды

Прокрутка
Тональность
Шрифт
100
Author/Artist: Chevelle 
Title: Wonder What's Next ... 
Album: Wonder What's Next ...
Transcribed by: J. Lane
Email: SactoDeftonesFan@yahoo.com

The tuning is drop B (Low to highest: B f# b e g# c#)

--------------------|---------------------------------------------------------
--------------------|---------------------------------------------------------
--------------------|---------------------------------------------------------
--------------------|-0-5-6--0-65--0-5---------------------------------------
--------------------|-0-5-6--0-65--0-5---------------------------------------
-0-5-6--0-65--0-5--|-0-5-6--0-65--0-5---------------------------------------
 Intro                Intro Part 2                                            

-------------------------|----------------------------------------------------
-------------------------|----------------------------------------------------
-------------------------|----------------------------------------------------
--3-3-3-3-3--4p3--0-3----|----------------------------------------------------
--3-3-3-3-3--4p3--0-3----|----------------------------------------------------
--3-3-3-3-3--4p3--0-3----|-0-0------------------------------------------------
 I---pm----I
 
 

Видео