Чиж - На двоих, аккорды

Прокрутка
Тональность
Шрифт
100
Em                         Am
На двоих один паспорт для развода ментов,
D           G        D     Em
Плэйер марки "Романтик" и кассета Битлов,
Em                         Am
На двоих один свитер для холодных ночей,
D           G        D     Em
Пара банок консервов, полкило сухарей.

  G D  Em G D  Em G D  F  C Em D     G
E|-7----------7----------7--10------8---------7------|
B|----10--8------10--8----------10-----8--7-----10-8-|
G|------------------------------------------7--------|

Em                         Am
На двоих один берег, на двоих один лес,
D           G        D     Em
На двоих одно горе, на двоих один крест,
Em                         Am
На двоих целый месяц и бутылка вина,
D           G        D     Em
На двоих Parabellum, если война.

Em                         Am
На двоих сигарета и пара бычков,
D           G        D     Em
На двоих один зонтик, и одна любовь.
Em                         Am
На двоих один доллар на обратный проезд,
D           G        D     Em
На двоих одно горе, для двоих один крест...

Проигрыш:
E|-7v-5----7v-5---7-5-5-4/5----------7-5-----------------7-5---|
B|------88------8-----------88-7/8-7-----8-7-10-10/12-12-----88|
G|-------------------------------------------------------------|
D|-------------------------------------------------------------|
A|-------------------------------------------------------------|
E|-------------------------------------------------------------|

E|-7-5-4/5-5-5---------7-5---|
B|-------------8-7/8-7-----8-|
G|---------------------------|
D|---------------------------|
A|---------------------------|
E|---------------------------|

Этот проигрыш играется между первым и вторым куплетом:
E|-7-5-5----7-5-5-7----7-5-5-4/5---------7-5---|
B|-------8----------8------------8-7/8-8-----8-|
G|---------------------------------------------|
D|---------------------------------------------|
A|---------------------------------------------|
E|---------------------------------------------|

Основное соло после второго куплета:
E|------------------------------7b-7----------------------------|
B|-7r-7/8---5-7r-8-7-5---5-8/10------11h10h8-11h10h8-8--8-7-----|
G|--------8------------8------------------------------------8-9-|
D|--------------------------------------------------------------|
A|--------------------------------------------------------------|
E|--------------------------------------------------------------|

E|--------------------------------------------------------------|
B|---------------------------5-7-8-8-10-12-12-12р13h12-10-12р13-|
G|-----------------7р8р9-7-9------------------------------------|
D|-7р8h7-7-5-7-5------------------------------------------------|
A|---------------7----------------------------------------------|
E|--------------------------------------------------------------|


E|------------------------------------------------7-5-5---7-5---|
B|-11h10-8-10-8---8-10b---10r-10r-8-------------8-------8-----8-|
G|--------------9---------------------------7-9-----------------|
D|----------------------------------5-7-7/9---------------------|
A|--------------------------------------------------------------|
E|--------------------------------------------------------------|


E|-7-5-5-----7-7-7-7r-5-7-5----------7-5---|
B|--------8-----------------8--8-7-7-----8-|
G|-----------------------------------------|
D|-----------------------------------------|
A|-----------------------------------------|
E|-----------------------------------------|
 
 

Видео