Чиж - Coda, аккорды

Прокрутка
Тональность
Шрифт
100
                     Dm     Dm+7   Dm7        Dm+7 
E|---------------|--------------||------------|----------------| 
B|---------------|--------------||5h6-6--6--6-|6-6-6h8-6-5---6-| 
G|---22-2---22-2-|--22-2---22-2-||------------|----------------| 
D|---33-3---33-3-|--33-3---33-3-||------------|----------------| x2
A|-5------4------|3------4------||------------|----------------| 
E|---------------|--------------||------------|----------------|    

Dm                         Gm6 C      C#dim     Dm  E7 
e|-------------------------|---|-----------------|---|---------|
B|-------------------------|---|-----------------|---|---------|
G|-------------------------|---|-----------------|---|---------|
D|-------------------------|---|-----------------|---|---------| 
A|5h6-6-6-6-5h6-5h6-5h6-5h6|-5-|4h5-5-5-5-/-11-10|---|-5-5-5/8-| 
E|-------------------------|---|-----------------|10-|---------|           

A7+3 A7 Dm   Dm+7    Dm7            Dm+7  Dm 
e|-------|---|-------------|-------------------|---------------|
B|-------|---|-------------|-------------------|---------------|
G|-------|---|-------------|-------------------|---------------|
D|-------|---|-------------|-------------------|---------------| 
A|-6h8p6-|-5-|-5h6-6-5h6-6-|-6-6-6-8-6h8p6-5-6-|-5h6-6-6-6-5h6-| 
E|-------|---|-------------|-------------------|---------------|              

Gm6 C7    F              C7 (*)          F       E7 
e|---------|---|------------------|----------------------|-----|
B|---------|---|------------------|----------------------|-----|
G|---------|---|------------------|----------------------|-----|
D|---------|---|------------------|----------------------|-----| 
A|6-5h6-5h6|-5-|5-/-8-6-6h8p6-5-6-|-8-8-8/11-11-11-11-10-|-9-9-| 
E|---------|---|------------------|----------------------|-----|               

A7+3      A7     Dm                       Bm 
e|---------|----------------|------------------------|---------|
B|---------|----------------|------------------------|---------|
G|---------|----------------|------------------------|---------|
D|-12--10--|-10----9p8-9----|-/5--5--5--5h6p5--4--5--|-6-------| 
A|---------|----------------|------------------------|----6----| 
E|---------|----------------|------------------------|-------6-|       

F                       E        Gm      A7      Dm 
e|-----------------------|----------|---------------|----------|
B|-----------------------|----------|---------------|----------|
G|-----------------------|----------|---------------|----------|
D|-5h6p5--5--5--5--5--5--|-4h5--0---|-3--3--3-3-3-3-|-3p-1-----| 
A|-----------------------|--------0-|---------------|------3---| 
E|-----------------------|----------|---------------|--------2-|            

E7           A7+3       A7         Dm             Gm7/D 
e|-------|----------|-----------------------|------------------|
B|-------|----------|-----------------------|------------------|
G|-------|----------|-----------------------|------------------|
D|-----1-|-0--------|-----------------------|---5-----------6--| 
A|---3---|-----/5-3-|-3h5p3-----------------|-----6-5h6p5-3----| 
E|-2-----|----------|---------6p5-6---------|------------------|    

Dm7            Dm6   Cm6      D7          Gm       Gm7    C7 
e|------------------|---------------------|---|----------------|
B|------------------|---------------------|---|----------------|
G|------------------|---------------------|---|----------------|
D|---5-----------7--|---5-5-5-5-5-5-5-8-7-|-6-|----------------| 
A|-----6-5h6p5-3----|--4------------------|---|-3h4h5h6---8-5--| 
E|------------------|-5-------------------|---|----------------|    

Fmaj      Bmaj E7                 A7+3     A7  Dm       Dm+7 
e|--------------|----------------|------------|----------------|
B|--------------|----------------|------------|----------------|
G|--------------|----------------|------------|----------------|
D|--------------|--------7--4----|------------|----------------| 
A|---55-5-6-3---|--5-4-5-----5--3|-3----------|-/6---6--6----6-| 
E|--------------|----------------|------6p5-6-|----------------|    

Dm7          Dm+7        Dm        Dm7       Gm 
e|-----------------------|------------------|------------------|
B|-----------------------|------------------|------------------|
G|-----------------------|------------------|------------------|
D|------5-6-7-8-7-6-5-4--|------------------|------------------| 
A|6-5-6-----------------8|6-5-6-5-6/10-10-10|-10---------------| 
E|-----------------------|------------------|----10-12-10/1210-|     

C C#dim     Dm             E7               A7+3      A7 
e|----------|------------|------------------|------------------|
B|----------|------------|------------------|------------------|
G|----------|------------|------------------|------------------|
D|----------|--------5-6-|-5h6p5-4------74--|------------------| 
A|------5h8-|-6--5-6-----|---------5-545--53|-3----------------| 
E|-9--------|------------|------------------|------6p5-6-------|    

Dm       Dm+7         Dm7             Dm+7  Dm              Gm6 
e|--------------------|--------------------|---------------|---|
B|--------------------|--------------------|---------------|---|
G|--------------------|--------------------|---------------|---|
D|-/13-13-13-13-13-13-|13-13-12h15-13-12-13|1-1-1-1-1-1-1-1|---| 
A|--------------------|--------------------|---------------|-5-| 
E|--------------------|--------------------|---------------|---|     

C        F   C7         F       E7 
e|------------|------------------|-----------------------------|
B|------------|------------------|-----------------------------|
G|------------|------------------|-----------------------------|
D|-8--5-------|-8-p6p5p3---------|-----------4-5-6-7-4h5p4-----| 
A|------5---6-|------------6-----|-5h6p5-4-5---------------5-3-| 
E|------------|------------------|-----------------------------|      

 A7+3        A7         Dm                          Bm7 
e|------------------------|--------------------------|---------|
B|------------------------|--------------------------|---------|
G|------------------------|--------------------------|---------|
D|------------------------|----5-5-5-------5h6p5-4-5-|-6-6-6-6-| 
A|-5p3--2-/-10--10--------|--------------------------|---------| 
E|------------------------|--------------------------|---------|     

F                      E7     Gm7            A7        Dm 
e|----------------------|------|------------------------|-----|
B|----------------------|------|------------------------|-----|
G|----------------------|------|------------------------|-----|
D|-5-4-5-6-5h6h7h8----5-|-4----|----3h5p3-3-2-3-6-5-0-1-|-(1)-| 
A|----------------------|------|------------------------|-----| 
E|----------------------|------|------------------------|-----|
 
 

Видео