Чиж - зверек, аккорды новинка

Прокрутка
Тональность
Шрифт
100
Вступление: соло 4 раза
            соло+бой 4 раза

Соло: 
(Бой) Am G C F E Am Am G C F E Am
1-----------------------------------------
2-----------------5-----------------------
3-----5-----7-------7-5---5-----------5---
4-5-7---0-7---0-7-------7---0-7-5---7---7-
5---------------------------------0-------
6-----------------------------------------

в конце проигрыша три последних ноты соло заменяются на две:   
3------
4----7-
5--0---

(бой)
Am G C F E Am 
Если бы ты была вовсе не ты - ручей,
Am G C F E Am
Я бы родился здесь самым маленьким из зверей.

Проигрыш: соло+бой
(Бой) Am G C F E Am Am G C F E Am
1-----------------------------------------
2-----------------5-----------------------
3-----5-----7-------7-5---5-----------5---
4-5-7---0-7---0-7-------7---0-7-5---7---7-
5---------------------------------0-------
6-----------------------------------------

(бой)
Am G C F E Am 
Я бы любил рассвет, за ельник бы бегал в ночь,
Am G C F E Am
Я бы запутал след, так как ночь - это значит прочь.

Проигрыш: соло+бой
(Бой) Am G C F E Am Am G C F E Am
1-----------------------------------------
2-----------------5-----------------------
3-----5-----7-------7-5---5-----------5---
4-5-7---0-7---0-7-------7---0-7-5---7---7-
5---------------------------------0-------
6-----------------------------------------

G                              F
     Я бы пел на луну круглый год,
G                            F E
     Я бы брал даже верхнее ля.

Проигрыш: соло+бой
(Бой) Am G C F E Am Am G C F E Am
1-----------------------------------------
2-----------------5-----------------------
3-----5-----7-------7-5---5-----------5---
4-5-7---0-7---0-7-------7---0-7-5---7---7-
5---------------------------------0-------
6-----------------------------------------

Am G C F E Am 
Я бы дышал травой, я бы играл хвостом,
Am G C F E Am
Дикий и всем чужой, я бы не пел  фантом .
Am G C F E Am 
Не торопясь домой, трава - постель, кочка . стол,
Am G C F E Am
Я бы так залинял весной, что и в армию не пошел.

G                              F
     Я бы пел на луну круглый год,
G                           F E
     Я бы брал даже нижнее ре.

Проигрыш: соло+бой x4
(Бой) Am G C F E Am Am G C F E Am
1-----------------------------------------
2-----------------5-----------------------
3-----5-----7-------7-5---5-----------5---
4-5-7---0-7---0-7-------7---0-7-5---7---7-
5---------------------------------0-------
6-----------------------------------------

Проигрыш: G F | G F (E) }x2
          Am G C F E Am Am G C F E Am }x2

(бой)
Am G C F E Am 
Я бы пришел к ручью, нюх, слава богу, есть.
Am G C F E Am 
Не спрашивай почему, но понял бы - это здесь.
Am G C F E Am 
Я бы вошел в ручей, я бы вошел в тебя,
Am G C F E Am 
Если бы ты - не ты, если бы я - не я.

Проигрыш: соло+бой x4
(Бой) Am G C F E Am Am G C F E Am
1-----------------------------------------
2-----------------5-----------------------
3-----5-----7-------7-5---5-----------5---
4-5-7---0-7---0-7-------7---0-7-5---7---7-
5---------------------------------0-------
6-----------------------------------------
 
 
Свернуть Распечатать

Видео