Чиж - Лирическая, аккорды

Прокрутка
Тональность
Шрифт
100
      Dm
e|------1-------------1------------1------------1-----------------------------
b|--3-----3-------3-----3------3-----3------3-----3---------------------------
g|----2-----2-------2-----2------2-----2------2-----2-------------------------
D|-0------------0------------0------------0-----------------------------------
A|----------------------------------------------------------------------------
E|----------------------------------------------------------------------------
                                                       Здесь

   Dm           Dm/C         B7           A7        Gm      A7
e|-------1------------1--------------------------------------0----------------
b|---3-----3------3-----3----------3------------2----------3---3---------2----
g|2-----2-----2------1---1--------0---0------3-------3-----0---0---------------
D|-0---------------------------3-------3----2-------2----------------2-------2
A|--3------------1------------0------------------------0-----------------------
E|-----------------------------------------3-----------------------------------
   лапы       у елей    дрожжат    на весу.   Здесь птицы       щебечут

   Dm          Dm/F         Bm            D           Gm            Gm7
e|-------1-------------1-----------3------------2-------------3---------------
b|-----3---3---------3---3-----------4--------3---3---------3---3----------3--
g|---2-------2-----2-------2-----5-----5----2-------2-----3-------3-------3--3
D|-0-----------sl3-------------5----------0-----------sl5---------------3-----
A|---------------3----------------------------------------5-------------------
E|------------------------------------------------------3---------------------
трево-       -жно.        Живешь           в заколдо- диком       лесу,

                                              ванном,
   Dm          E7          Asus4          A7          Dm           Dm/F
e|-------1-----------0-------------0----------0------------1------------1-----
b|-----3---3-------3---3---------3---3--2-------2------3-----3------3-----3---
g|---1-------1-----2----------0-------0------2-----2------2-----2-------------
D|-3-3-------3---------------2--------------2--------0------------------------
A|-------------0------------0-------------------------3-----------------------
E|-0--------------------------------------------------------------------------
       откуда уйти        невозможно.        Пусть черемухи      сохнут

 E7/B           E7           C            C             F
e|--------0------------0-------------0----------0-------------1---------------
b|------3---3--------3---3---------1---1----------1---------1---1-------------
g|----1-------1----1-------1-----0------------0------0----2-------2-----------
D|-----------------2------------2-----------3---------------------------------
A|-2-------------------------3------------3-----------------------------------
E|---0------------------------------------------------------------------------
бельем    на ветру, пусть дождем       опадают       сирени

  Cm      D     Gm              Gm7          Dm          Dm
e|-3------2-------------3--------------3------------1-----------1-------------
b|---4------3---------3---3----------3---3--------3---3-------3---3-----------
g|-----5------2-----3-------3------3-------3----2-------2---2-------2---------
D|--------0-----sl5---------------------------0-----------0-------------------
A|>---------------------------------------------------------------------------
E|?3?----------------------------3--------------------------------------------
          Все равно я       от  сюда        тебя      заберу         во

    B7          A7           Dm
e|----------1------------0----------1-----------------------------------------
b|--------3---3--------2---2----3-----3---------------------------------------
g|------1------------0------------2-----2-------------------------------------
D|----3------------2----------0-----------------------------------------------
A|--1------------0------------------------------------------------------------
E|----------------------------------------------------------------------------
дворец    где играют      свирели...

e|---------1------------0----------1------------1-------------3---------------
b|-------3---3--------2---2----3-----3------3-----3---------3---3-------------
g|-----1------------0------------2-----2------2-----2-----3-------3-----------
D|---3------------2----------0------------0-----------sl5---------------------
A|-1------------0-------------------------------------------------------------
E|----------------------------------------------------------------------------
  терем, с дворцом   кто-то занял                 соглашайся

e|-------3------------1-----------1---------------1------------0--------------
b|-----3---3--------3---3-------3---3-----------3---3--------2---2------------
g|---3-------3----2-------2---2-------2-------1------------0------------------
D|--0-----------0---------------3------------2--------------------------------
A|----------------------------1------------0----------------------------------
E|-3--------------------------------------------------------------------------
 хотя бы    на рай    в шалаше,     если терем  с дворцом          кто-то

и дальше произвольно типа:       {замедляя}.
e|-------1--------0--------1--------------------------------------------------
b|-------3--------2------3----------------------------------------------------
g|-----1--------0------2------------------------------------------------------
D|---3--------2------0--------------------------------------------------------
A|-1--------0-----------------------------------------------------------------
E|----------------------------------------------------------------------------
  занял

Здесь лапы у елей дрожат на весу,
Здесь птицы щебечут тревожно.
Живешь  в заколдованном диком лесу,
Откуда уйти невозможно.
Пусть черемухи сохнут бельем на ветру,
Пусть дождем опадают сирени,
Все равно я отсюда тебя заберу
Во дворец, где играют свирели.
Твой мир колдунами на тысячи лет
Укрыт от меня и от света.
И думешь ты, что прекраснее нет,
Чем лес заколдованный этот.
Пусть на листьях не будет росы поутру,
Пусть луна с небом пасмурным в ссоре,
Все равно я отсюда тебя заберу
В светлый терем с балконом на море.
В какой день недели, в котором часу
Ты выйдешь ко мне осторожно?
Когда я тебя на руках унесу
Туда, где найти невозможно?
Украду, если кража тебе по душе,
Эря ли я столько сил разбазарил.
Соглашайся хотя бы на рай в шалаше, 
Если терем с дворцом кто-то занял. 
Соглашайся хотя бы на рай в шалаше, 
Если терем с дворцом кто-то занял.
 
 

Видео