Чиж - Капель, аккорды

Прокрутка
Тональность
Шрифт
100
Перебор к первому куплету:
    Em                C       D
E-----0---------0-|-----0-----3-2---|
B-------0-----0---|-----1---------3-|
G-----------0-----|---0---0---------|
D-----------------|---------0-------|
A---------2-------|-3---------------|
E-----------------|-0---------------|
    Ой да капель      ой да капель

    Am                B7       Em
E-----------------|-----------------|
B-----1-------1---|-----4-------0---|
G-------------2---|---2---------0---|
D-----------------|-----------------|
A-0-------0-------|02---------------|
E-----------------|----------0------|
   Вышел во двор  послушал и спел

    Em                C       D
E-----0---------0-|-----0-----3-2---|
B-------0-----0---|-----1---------3-|
G-----------0-----|---0---0---------|
D-----------------|---------0-------|
A---------2-------|-3---------------|
E-----------------|-0---------------|
Да ветер зануда разогнал весь хмель

    Am                B7       Em
E-----------------|--------------0---|
B-----1-------1---|------4-------0---|
G-------------2---|----2---------0---|
D-----------------|--------------2---|
A-0-------0-------|0-2-----------2---|
E-----------------|-----------0--0---|
    Ой да капель да ой да  капель Оп.

Припев:
Em             С         D
Ой, да капель, ой, да капель,
 Am                B7       Em
Вышел во двор, послушал и спел.
    Em                   С         D
Да ветер – зануда, разогнал весь хмель,
Am                B7        Em
Ой, да капель, да ой, да капель. Оп.

 Em                    B7 Em
Мамка малыша кормила грудью,
 B7          Em
На плите достаивался студень.
 D           Am
Батька мастерил к обеду ложки,
 D           C               Am
Косточку – собачке, рыбку – кошке.

Проигрыш: | Em | C D | Am | B7 Em }x2 

 Em                    B7 Em
Бабка по столу самобранку,
 B7          Em
Дед точил косу, рубашка наизнанку.
 D           Am
Маленький просился на ручки,
 D           C               Am
Не давали спать кобели да сучки.

Припев:
Em             С         D
Ой, да капель, ой, да капель,
 Am                B7       Em
Вышел во двор, послушал и спел.
    Em                   С         D
Да ветер – зануда, разогнал весь хмель,
Am                B7        Em
Ой, да капель, да ой, да капель. Оп.

 Em                    B7 Em
Гадала цыганка на годы ему,
 B7          Em
Кольчугу-вязанку к щиту и к мечу.
 D           Am
Расправит им плечи прыжком на коня,
Am               C  B7        
Посыпятся головы-ы во голова-а-а-а-а

Проигрыш: | Em | C D | Am | B7 Em }x2 

 Em                    B7 Em
Ой, да капель, да выплаканы слезы,
 B7          Em
Да синица в небе, да дверь с петель.
 D           Am
Сколько не раскладывай колоды,
 D           C            Am
Нет дороги у вольта червей.

Припев:
Em             С         D
Ой, да капель, ой, да капель,
 Am                B7       Em
Вышел во двор, послушал и спел.
    Em                   С         D
Да ветер – зануда, разогнал весь хмель,
Am                B7        Em
Ой, да капель, да ой, да капель. 
 
 
Свернуть Распечатать

Видео