Чиж - Идиллия, аккорды

Прокрутка
Тональность
Шрифт
100
Intro:
1|-----------------------|--------------------|-----------------------|
2|-----7-7---------12--7-|-----7-7------12--7-|------7-7--------12--7-|
3|---7-----7----12-------|---7-----7----12----|----7-----7---12-------|
4|-7---------7-----------|-7---------7--------|--7---------7----------|
5|-----------------------|--------------------|-----------------------|
6|-----------------------|--------------------|-----------------------|

1|--------------------|
2|-----7-7------12----|
3|---7-----7------(7)-| x2 (То, что в скобках - 
4|-7---------7--------|  второй раз не играется)
5|--------------------|
6|--------------------|

   Dsus2 Em7     G     Csus2
 Странное чувство какой-то вины -
      Dsus2 Em7   G     Csus2
 Мы так редко бываем с тобою вдвоем.
   Dsus2   Em7   G     Csus2
 Стоят разведенными наши мосты
   Dsus2    Em7    G     Csus2
 И каждый замкнулся на чем-то своем

     G       D    Csus2    D
 Взгляни мне в глаза, не бойся, смелей!
     G        D   Csus2   D
 Ты почувствуешь, сразу станет теплей
    G     G       D      Em
 И вспомни о том, как однажды сплелись
   Em9/C        D
 Драко-ны наших страстей

   Dsus2 Em7     G     Csus2
 Не убеждай меня в том, что я стал
   Dsus2 Em7     G  Csus2
 Заметно старее лицом
   Dsus2   Em7   G     Csus2
 Не говори мне, что это сказалась
   Dsus2   Em7   G  Csus2
 Крепкая дружба с вином.

     G       D    Csus2    D
 Не упрекай, что в последнее время
     G       D    Csus2 D
 Я стал равнодушен к тебе
    G     G       D      Em
 И не пытайся казаться чужой,
   Em9/C        D
 Я знаю, ты веришь мне.

   Dsus2 Em7     G     Csus2
 Возьми мою грусть, прими мою радость,
   Dsus2 Em7     G     Csus2
 Кто еще может быть ближе тебе?
   Dsus2   Em7   G     Csus2
 И бережно ставя в угол гитару,
   Dsus2   Em7   G     Csus2
 Ты скажешь: Во всем виновата она!

     G       D    Csus2    D
 Меня от всей души рассмешит
     G       D    Csus2    D
 До слез, твой по-детски наивный укол.
    G     G       D      Em
 Я знаю, что ты и сама влюблена,

   Em9 (add C)     D
E|-----------|--------------2h3-2-------3-2h3p2-----2-|
B|---------3-|------3-----4-------3-------------3-----|
G|-------0---|----0-----2-----------2-------------2---|
D|-----4-----|--4-----0---------------0---------------|
A|-----------|3---------------------------------------|
E|---0-------|----------------------------------------|
 Не меньше меня в рок-н-ролл.

  C           D           G           Em7
E|-0-----0-------0|-2-----2-------0|-3-----3-------0|-0-----0---------|
B|-----1---1---1--|-----3---3---3--|-----3---3---3--|-----3---3-------|
G|---0-------0----|---2-------2----|---4-------4----|---0-------0---0-|
D|----------------|-0--------------|----------------|-------------2---|
A|-3--------------|----------------|----------------|-----------------|
E|----------------|----------------|-3--------------|-0---------------|
 Идилия наша, настолько нелепа,что мы не находим слова.

  C           D             G    C    A7sus4
E|-0-----0-------0|-2-----2h3p2----|----3------------------|
B|-----1---1---1--|-----3-------3--|----0------1---------3-|
G|---0-------0----|---2-----------2|----0------0--------0--|
D|----------------|-0--------------|-------------------2---|
A|-3--------------|----------------|-----------3------0----|
E|----------------|----------------|----3------------------|
Мы все понимаем, мы просто смеемся, нам нравится эта игра...

Комментарий автора:

Csus2: x30013
 
 

Видео