Чиж - О любви, аккорды

Прокрутка
Тональность
Шрифт
100
Проигрыш:
e|--2---0---2---0-------0----5-3-2--И-с-начала----------------|
b|----3---3---3---3---3---3-----------------------------------|
g|------------------4-----------------------------------------|
a|------------------------------------------------------------|
d|------------------------------------------------------------|
e|------------------------------------------------------------|

Это баянный проигрыш:
E|-------------------3-3-1h3р1-0------------------------------|
B|-1-1-3--1h3р1р0-----------------1-1-3--1h3р1р0---------1----|
G|------------------------------------------------------------|
D|----------------2------------------------------2-3-2-3------|
A|------------------------------------------------------------|
E|------------------------------------------------------------|

E|-------------------3-3-1-0----------------------------------|
B|-1-1-3--1h3р1р0-------------1-1-3--1h3р1р0---------1--------|
G|------------------------------------------------------------|
D|----------------2--------------------------2-3-2------------|
A|------------------------------------------------------------|
E|------------------------------------------------------------|

Бас:
по кругу все время
E|--------------------------------------|
B|--------------------------------------|
G|----------------2----2-------0-2-0----|
D|---------2----2--------3---3----------|
A|--3----3------------------------------|
E|------------------------------------3-|

Скрипка(по кругу)
|-0----------0----------0-----------0-----------0-----1--0-|
|---1--3--1----1--3--1-----1--3--1-----1--3--1-----1-------|
|----------------------------------------------------------|

Intro: G Gb F E C

 D   F#7       Bm  G  Gm+7 D
А не спеть ли мне песню о любви?
    F#7   Bm G Gm+7   D
А не выдумать ли новый жанр?
 D   F#7       Bm  G  Gm+7 D
Попопсовей мотив и стихи,
    F#7   Bm G Gm+7   D
И всю жизнь получать гонорар!

 D   F#7       Bm  G  Gm+7 D
Мою песню услышат тысячи глаз,
    F#7   Bm G Gm+7   D
Мое фото раскупят сотни рук.
 D   F#7       Bm  G  Gm+7 D
Мое Солнце мне скажет: "Это про нас",
    F#7   Bm G Gm+7   D
Посмеется над текстом лучший друг.

 D   F#7       Bm  G  Gm+7 D
И я стану сверхновой суперзвездой,
    F#7   Bm G Gm+7   D
Много денег, машина - все дела.
 D   F#7       Bm  G  Gm+7 D
Улыбнувшись, ты скажешь: "Как крутой",
    F#7   Bm G Gm+7   D
Я тебя обниму - ты права.

 D   F#7       Bm  G  Gm+7 D
Напишу-ка я песню о любви.
    F#7   Bm G Gm+7   D
Только что-то струна порвалась,
 D   F#7       Bm  G  Gm+7 D
Да сломалось перо, ты прости.
    F#7   Bm G Gm+7   D
Может, в следующий раз, а сейчас пора спать.

Комментарий автора:

Gm+7: 354353
 
 

Видео