Запрещают песни Цоя, Агата Кристи, Наутилус Помпилиус, Зиверт
Отвечаем в отдельной теме

Christina Stürmer - Auf und davon, аккорды

Прокрутка
Тональность
Шрифт
100
First only bass -> chords: C# / F#m / A / B 3x

After the first time the INTRO Riff starts
e|---------------------------|
B|---------------------------|
G|---------------------------|
D|---------------------------|  3x
A|---7p6-7p6-7p6----7p6-7p6--|
E|---------------------------|

e|-------------------------------|
B|-------------------------------|
G|-------------------------------|
D|-------------------------------|
A|---7p6-7p6-7p6-7p6-7p6-7p6-7---|
E|-------------------------------|

    C#
Nur ein Tag mehr und mir platzt der Kopf
     F#m
will weg von hier, denn ich krieg keine Luft
       A                                       B
es ist eng, es ist heiß, es ist laut, ich muss raus
    C#
Ich brauch freie Sicht, ich brauch einen neuen Plan
           F#m
ich brauch frischen Wind um neu anzufangen
       A                                     B
es ist Zeit, bin bereit, bin soweit, ich bin frei
F#m                          A
Die Welt liegt hinter dieser Tür.
 
Strophe riff:
e|-----------------------|---------------------------|-----------------------|
B|-----------------------|---------------------------|-----------------------|
G|-----6-6------6-6---6--|-----11-11-----11-11---11--|-----6-6-----6-6-------|
D|-----------------------|---------------------------|-----------------------|
A|---4------444-----4----|---9-------999-------9-----|-----------------------|
E|-----------------------|---------------------------|---5-----555------5----|

e|--------------------|---7---|---5--|
B|--------------------|---8---|---5--|
G|-----8-8-----8-8----|---9---|---6--|
D|--------------------|---9---|---7--|
A|--------------------|---7---|---7--|
E|---7-----777-----7--|-------|---5--|

Chorus:
            C#                  E
Volle Kraft voraus, wir brechen auf
       A                    Ab
egal wohin, alles muss sich ändern.
            C#                  E
Volle Kraft voraus, wir brechen auf
       A              Ab
egal wohin, alles von vorn es hat begonnen.
(INTRO)
Auf und davon. Auf und davon

    C#
Die Zukunft hat gerade angefangen
F#m
trau dich nimm deinen Mut zusammen
       A                                       Ab
Spring auf, es wird gut, es wird groß, es geht los
            C#        
Wir gehen genau dorthin wo wir noch nicht warn
       F#m
suchen neues Land, wollen immer weiter fahren
         A                                            Ab
wir sind schnell, wir sind weg, nur ein Schritt, kein zurück
F#m                            A
Mach's gut es war einen schöne Zeit.

Chorus:
            C#                  E
Volle Kraft voraus, wir brechen auf
       A                    Ab
egal wohin, alles muss sich ändern.
            C#                  E
Volle Kraft voraus, wir brechen auf
       A              Ab
egal wohin, alles von vorn es hat begonnen.
        B              Ab              F#
Auf und davon. Auf und davon. Auf und davon

Britge:
                  A
Du kannst mit mir kommen
    C#
Die Reise hat grad erst begonnen.   (INTRO)

Chorus:
            C#                  E
Volle Kraft voraus, wir brechen auf
       A                    Ab
egal wohin, alles muss sich ändern.
            C#                  E
Volle Kraft voraus, wir brechen auf
     A                Ab             
egal wohin, alles von vorn, es hat begonnen, 
alle von vorn, es hat begonnen
C#
Auf und davon
 
 
Свернуть Распечатать

Аппликатуры аккордов

Аккорд C#Аккорд F#mАккорд AАккорд BАккорд EАккорд AbАккорд F#
помощники
1,108 0 10.05.2016

Видео