Cockburn Bruce - Burden Of The Angel Beast, аккорды

Прокрутка
Тональность
Шрифт
100
Verse:
 D     G5    D     G5    D     G5   
 | //// | //// | //// | //// | //// | //// :| (2x)
 
 Chorus:
 Em6add3 Asus4/Asus7 A       D
 | //// | //   // :| (2x) | ////
 
 Solo: (my own) - see tab
 D   run     D9/G   D run  G6     D run  D9/G
 | // //    | // // | // // | //// | // // | //// |
 
 Em6add3 run A   run  D
 | //   // | // // | //// | 
 
 Out jam:
 Em6add3 Asus4/Asus7 A
 | //// | //   // :|
 
 SOLO TABS:
 Common riffs:
  D :         G5 :
  / / /  /    / / /   /
 |-2--2--3_2-2_0---------|
 |-3--3--3--------|-3--3-----3---3---|
 |-2--2--2--------|-------0_4--0_4---|
 
 [top 3 strings - riff off chords above]
  
 D :           D9/G :(1st end)   G6 :(2nd end)
   / / / /    / / / /
 |   ---------   |----0-       ----
 |   --------- : |----3-       |-2/8----8!--8--
 |   --4_0---0   |----2-       |-3/7--------7--
 |   ------4--   |------       |-------0----9--
 |   --------- : |-2--2-       ----
 |   --0-0-0-0   |-0--0-       ----         
    
    
   /  /  p p p p   /  / // / /   / / /  /  
 |--2---2-------------|-----0---|-3-----|-0----------|-2--|
 |--3---3-------------|-----3---|-3-----|-2---2/3/5!-|-3--|
 |--2---2-------------|-----2---|-0-----|-2----------|-2--|
 |----------3-3--2-0--|---------|-2--4/5|-2----------|-0--|
 ---------|-2!--2---|-2-----|-0---0/2/4!-|-0--|
 |--0-------0-0--0-0--|-----0---|-2--2/5-|-2--|
 
 
 LYRICS: 
 From the lying mirror to the movement of stars
 Everybody's looking for who they are
 Those who know, don't have the words to tell
 And the ones with the words, don't know too well
 
 Chorus:
 Could be famine, could be the feast
 Could be the pusher, could be the priest
 Always ourselves we love the least
 That's the burden of the Angel Beast
 
 Birds of paradise, birds of prey
 Bere tommorrow, gone today
 Cross my forehead, cross my palm
 Don't cross me, or I'll do you harm [to chorus]
 
 (solo)
 
 We go crying, we go laughing
 Never understand, the time we were passing
 Kill for money, die for love
 Whatever was God thinking of 

 (to chorus)
 
 (out jam)
 
 

Видео