Coldplay - Don't Panic, аккорды

Прокрутка
Тональность
Шрифт
100
Intro:
      F  Fm/E F   Fm/E F   Fm/E F
E|-|--1-X-0h1-1-1--0h1-1-1--0h1-1-1--|-|
B|-|--1-X-0h1-1-1--0h1-1-1--0h1-1-1--|-|
G|-|--2-X-0h2-2-2--0h2-2-2--0h2-2-2--|-|
D|-|--3-X-3---3-3--3---3-3--3---3-3--|-|
A|-|--3-X-3---3-3--3---3-3--3---3-3--|-|
e|-|--1-X-0h1-1-1--0h1-1-1--0h1-1-1--|-| X 2

Verse:
Am                  C
Bones sinking like stones,
               F (like intro)
All that we've fought for.
Am                  C
All these places we've grown,
               F (like intro)
All of us are done for.

Chorus:
Chorus Riff:
    ...and we live in...
E|-|--5-5-5-5-5-5-5-5--7-7-7-7--8-8-8-8--12-12-12-12-12-12-12-12--|-|
B|-|--------------------------------------------------------------|-|
G|-|--------------------------------------------------------------|-|
D|-|--------------------------------------------------------------|-|
A|-|--------------------------------------------------------------|-|
e|-|--------------------------------------------------------------|-|

    ...we live in a...
E|-|--5-5-5-5-5-5-5-5--7-7-7-7--8-8-8-8--0h1h5-0h1h0----0h1h5-0h1h0--|-|
B|-|-----------------------------------------------------------------|-|
G|-|-----------------------------------------------------------------|-|
D|-|-----------------------------------------------------------------|-|
A|-|-----------------------------------------------------------------|-|
e|-|-----------------------------------------------------------------|-|

Dm                            Am
And we live in a beautiful world,
Em
Yeah we do, yeah we do.
Dm                          Am Em
We live in a beautiful world.

Verse:
Am                  C
Bones sinking like stones,
               F (like intro)
All that we've fought for.
Am                  C
All these places we've grown,
               F (like intro)
All of us are done for.

Chorus:
Dm                              Am
And we live in a beautiful world,
Em
Yeah we do, yeah we do.
Dm                          Am Em
We live in a beautiful world.

Piano Solo: Like verse.
For me this 100% correct, try it in another octave.
E|-|-----------------------------|-|---------------------------|-|
B|-|----8---------8--------------|-|-----8---------8------6----|-|
G|-|--9---10-9-9----10-9-7-9-----|-|--9----10-9-9----10-9------|-|
D|-|--10---------------------10--|-|--10--------------------7--|-|
A|-|-----------------------------|-|---------------------------|-|
e|-|-----------------------------|-|---------------------------|-|

Chorus:
Guitar with the chorus riff.
Dm                              Am
And we live in a beautiful world,
Em
Yeah we do, yeah we do.
Dm                          Am Em
We live in a beautiful world.

Guitar Solo: Like verse.
With echo and delay.
E|-|--/12--12--12--12--12--12--12--12----|-|--0h1-5-0h1h0--0h1-5-0h1h0--|-|
B|-|-----13--13--13--13--13--13--13--13--|-|----------------------------|-|
G|-|-------------------------------------|-|----------------------------|-|
D|-|-------------------------------------|-|----------------------------|-|
A|-|-------------------------------------|-|----------------------------|-|
e|-|-------------------------------------|-|----------------------------|-|

E|-|--/12--12--12--12--12--12--12--12----|-|--0h1-5-0h1h0--0h1-5-0h1h0--|-|
B|-|-----13--13--13--13--13--13--13--13--|-|----------------------------|-|
G|-|-------------------------------------|-|----------------------------|-|
D|-|-------------------------------------|-|----------------------------|-|
A|-|-------------------------------------|-|----------------------------|-|
e|-|-------------------------------------|-|----------------------------|-|

Verse:
Am          C
Oh all that I know,
                     F (like intro)
There's nothing here to run from,
Am                   C                     F (like intro)
'Cos yeah, everybody here's got somebody to lean on.
 
 

Видео