Cranberries - Time Is Ticking Out, аккорды

Прокрутка
Тональность
Шрифт
100
Intro
G|---------------------------------------------------|
D|-9-9---9-9---9-9---9-9-----------------------------|
A|-------------------------5~---------5~-------------|
E|-------------------------------3~---------3~-----5-|

Verse I
G|-------------|
D|-----9-----0-|
A|-------9-7---|
E|-7-----------|

Verse II
G|----------------------------|
D|------------5-5-5-----------|
A|-5--5-5-5-4-----------------|
E|------------------3-3-3-5-5-|

Chorus
G|----------------------------|
D|------------5-5-5-5---------|
A|-5--5-5-5-4---------9-7-5---|
E|----------------------------|

Interlude
G|---------------------|
D|--------5-5-55-------|
A|-5-5-555-------9-7-5-|
E|---------------------|

Order:
verse I x4
verse II x2
verse I x4
verse II x2
verse I x4
verse II x2
verse I x4
verse II x2
chorus x4
verse I x3
verse I x4
verse II x2
verse I x4
verse II x2
chorus x4
interlude x2
chorus x2
verse I x7
 
 

Видео