Cranberries - Promises (2 вариант), аккорды

Прокрутка
Тональность
Шрифт
100
Intro :
E|--0--0---0---0-----2--2--2------2--2--2--3------1--1--0-|
B|--0--0---0---0-----3--3--3------3--3--3--3------0--0--0-|
G|--0--0---0---0-----4--4--4------2--2--2--2------2--2--2-|
D|--2--2---2---2-----4--4--4------0--0--0--0------3--3--3-|
A|--2--2---2---2------------------------------------------|
E|--0--0---0---0------------------------------------------|

Verse : Em/Bm/D/C
Note : The Bm is Played (xx4432)

Chorus : Same as the verse

Solo :
Note : The first part of the solo is played two times before chorus in the middle of the song

E|--7-7-7-7-7-7-7--5------0----7-7-7-7-7-7--5---------7-7-7-7-7-7--5-|
B|--------------------8-------------------------8--7-----------------|

E|-----8-8-8-8-8-8-7-5-0-|
B|-8-7-------------------|

End Riff :
E|-3-0-0-3-0-0-3-0-0-3-0-0-5-0-0-5-0-0-5-0-0-5-0-0-8--8-8-8-7-7-5-5-0-|

E|-7-7-7-7-7-7--5---------7-7-7-7-7-7--5--------8-8-8-8-8-8-7-5-0-|
B|-----------------8--7---------------------8--7------------------|

If you're not alone (two guitars), you can play under the Bm and the D this :
Bm
E|-------2---------------2---------------2------------2-------|
B|-----------3----------------3--------------------------3----|
G|--4-------------4------------------4-----------2----------2-|

E|--------2----------3-----2-----0-|
B|------------3--------------------|
G|---------------2-----------------|
 
 

Видео