Cranberries - This Is The Day, аккорды

Прокрутка
Тональность
Шрифт
100
Intro
--------------------------------------------------
------6-------------------------------------------
--7h9---9/----------------------------------------
--------------------------------------------------
 
Verse
--------------------------------------------------
--2-2--2-2-2--2-2-2--2-4-5------------------------
---------------------------5-3--------------------
--------------------------------------------------

Chorus
-------------------------------------------------------------------
--2-2-2-2-2-4-2----------------------------------------------------
----------------5-3-3-3-3-3-5-3-------------------3-3-3-3-3-3-5-5--
--------------------------------3-5-5-5-5-5-5-5-5------------------

Order:
Intro
Verse (x16)
Chorus (x2)
Verse (x8)
Chorus (x2)
Verse (x8)
Chorus (x4)
Verse (x4)
 
 

Видео