Cranberries - Delilah, аккорды

Прокрутка
Тональность
Шрифт
100
A5 C5 A5 C5 A5 C5 G5 F5

d d d u d d
e|--------------------------||
B|--------------------------||
G|------5--5--5--5----------||
D|-7-7--5--5--5--5----------||
A|-7-7--3--3--3--3----------||
E|-5-5----------------------|| >>>3 times and then

you play:
d d d d d d
e|--------------------------||
B|--------------------------||
G|--------------------------||
D|-5-5--3-3-3-3-------------||
A|-5-5--3-3-3-3-------------||
E|-3-3--1-1-1-1-------------||


The bass, probably goes like this:
|---------------------------------------------------|
|---------------------------------------------------|
|-----3-3-3-3-----3-3-3-3-----3-3-3-3---------------|
|-5-5---------5-5---------5-5---------3-3--1-1-1-1--|
 
 

Видео