Cranberries - Just My Imagination, аккорды

Прокрутка
Тональность
Шрифт
100
Main Riff:
e----------------3-----3-----1-|
B----6-----5-----4-----3-----1-|
G----7-----6-----5-----3-----2-|
D----8-----7-----5-----5-----3-|
A----8-----8-----3-----5-----3-|
E----6-----5-----3-----3-----1-|

Interlude:
e--------------------------------------------------------------|
B--------------3-6-6-6-6-6-6h8-6-4-4-4-4-4-6-4-----------------|
G--3-3-3-3-3-5---------------------------------7-7-7-5-5-5-7-5-|
D--------------------------------------------------------------|
A--------------------------------------------------------------|
E--------------------------------------------------------------|
 
 

Видео