Cranberries - When You're Gone (bass), аккорды

Прокрутка
Тональность
Шрифт
100
Intro - 0:12
|-----3-530-530-|---------------|---------------|---------------|
|---------------|-1------1-1----|---------------|---------------|
|---------------|---------------|-3------3-3----|---------------|
|---------------|---------------|---------------|-3-----3-3-----|

|---------------|
|-------------0-|
|-1-----11-13---|
|---------------|


Verse 1 - 0:30
|--------------|---------------|---------------|---------------|
|-1------1-1---|---------------|---------------|-------------0-|
|--------------|-3------3-3----|---------------|-1-----11-13---|
|--------------|---------------|-3-----3-3-----|---------------|

|--------------|---------------|---------------|---------------|
|-1------1-1---|---------------|---------------|-------------0-|
|--------------|-3------3-3----|---------------|-1-----11-13---|
|--------------|---------------|-3-----3-3-----|---------------|

|--------------|---------------|---------------|---------------|
|-1------1-1---|---------------|---------------|-------------0-|
|--------------|-3------3-3----|---------------|-1-----11-13---|
|--------------|---------------|-3-----3-3-----|---------------|

|--------------|---------------|---------------|---------------|
|-1------1-1---|---------------|---------------|-------------0-|
|--------------|-3------3-3----|---------------|-1-----11-13---|
|--------------|---------------|-3-----3-3-----|---------------|

Chorus - 1:31 hey,hey,hey
|------------03|---------------|---------------|---------------|
|-1----1-1--3--|------------0--|---------------|--------------0|
|--------------|-3----3-3--3-31|---------------|------------13-|
|--------------|---------------|-3----3-3--3--3|-4-------------|
hey,hey,hey
|------------03|---------------|---------------|---------------|
|-1---1-1--13--|------------0--|---------------|--------------0|
|--------------|-3----3-3--3-31|---------------|------------13-|
|--------------|---------------|-3----3-3--3--3|-4---44--44--44|

Bridge - 2:02
|------------03|---------------|---------------|---------------|
|-1---1-1--13--|------------0--|---------------|--------------0|
|--------------|-3----3-3--3-31|---------------|------------13-|
|--------------|---------------|-3----3-3--3--3|-4-----4-4-----|

Verse 2 - 2:17
|--------------|---------------|---------------|---------------|
|-1------1-1---|---------------|---------------|-------------0-|
|--------------|-3------3-3----|---------------|-1-----11-13---|
|--------------|---------------|-3-----3-3-----|---------------|

|--------------|---------------|---------------|---------------|
|-1------1-1---|---------------|---------------|-------------0-|
|--------------|-3------3-3----|---------------|-1-----11-13---|
|--------------|---------------|-3-----3-3-----|---------------|

|--------------|---------------|---------------|---------------|
|-1------1-1---|---------------|---------------|-------------0-|
|--------------|-3------3-3----|---------------|-1-----11-13---|
|--------------|---------------|-3-----3-3-----|---------------|

|--------------|---------------|---------------|---------------|
|-1------1-1---|---------------|---------------|-------------0-|
|--------------|-3------3-3----|---------------|-1-----11-13---|
|--------------|---------------|-3-----3-3-----|---------------|

Chorus - 3:19 hey, hey, hey
|------------03|---------------|---------------|---------------|
|-1----1-1--3--|------------0--|---------------|--------------0|
|--------------|-3----3-3--3-31|---------------|------------13-|
|--------------|---------------|-3----3-3--3-3-|4---44--44-44--|

|------------03|---------------|---------------|---------------|
|-1---1-1--13--|------------0--|---------------|--------------0|
|--------------|-3----3-3--3-31|---------------|------------13-|
|--------------|---------------|-3----3-3--3--3|-4---44--44--44|

Outro - 3:50 hey,hey,hey
|------------03|---------------|---------------|---------------|
|-1---1-1--13--|------------0--|---------------|---------------|
|--------------|-3----3-3--3-31|---------------|---------------|
|--------------|---------------|-3----3-3--3--3|-4---44--44--44|

hey,hey,hey
|------------03|---------------|---------------|---------------|
|-1---1-1--13--|------------0--|---------------|---------------|
|--------------|-3----3-3--3-31|---------------|---------------|
|--------------|---------------|-3----3-3--3--3|-4---44--44--44|

|------------03|---------------|---------------|---------------|
|-1---1-1--13--|------------0--|---------------|---------------|
|--------------|-3----3-3--3-31|---------------|---------------|
|--------------|---------------|-3----3-3--3--3|-4---44--44--44|

Begin Fade Out
|------------03|---------------|---------------|
|-1---1-1--13--|------------0--|---------------|
|--------------|-3----3-3--3-31|---------------|
|--------------|---------------|-3----3-3--3--3|
 
 

Видео