Cranberries - Carry On, аккорды

Прокрутка
Тональность
Шрифт
100
Bm D G D
E|---------------2------------2--------------3------------2--------|
B|------------3---3--------3---3---------3----3-------3---3--------|
G|---------4--------4----2-------2----0---------0---2------2-----4-|
D|------4--------------0------------0--------------0------------4--|
A|-----------------------------------------------------------------|
E|-----------------------------------------------------------------|
 
The rhythm is the same through the verse and chorus, 
the only change is at the end of chorus so:
A
E|----------2------------2--------------3------------2--|
B|-------3---3--------3---3---------3----3-------3---3--|
G|----4--------4----2-------2----0---------0---2------2-|
D|-4--------------0------------0--------------0---------|
A|------------------------------------------------------|
E|------------------------------------------------------|

E|---------------------------------------0-|
B|----2----2------2---2-----2-----2--------|
G|-2----2------2----2----2--------2--------|
D|-0-----------0------------------------2--|
A|-----------------------------------------|
E|-----------------------------------------|

Solo solamente al final, only at the end of song.
E|------------------------------------------------------------------|
B|--------9-7-- 8-7----8-7-------repeat x 2-----------------9-|
G|---7-------------------7----------------------------------------7-|
D|------------------------------------------------------------------|
A|------------------------------------------------------------------|
E|------------------------------------------------------------------|

Guitarra 2:
Since second verse it plays clean and fast once for each chord.
Bm D G D
E|---------2---------------2----------------3----------------2-|
B|---------3---------------3----------------3----------------3-|
G|---------4---------------2----------------0----------------2-|
D|---------4---------------0----------------0----------------0-|
A|-------------------------------------------------------------|
E|-------------------------------------------------------------|
 
 

Видео