Cranberries - Ridiculous Thoughts, аккорды

Прокрутка
Тональность
Шрифт
100
INTRO:
Finger these chords as an Amaj7.
|-----------------------------------------------------------------------
|---5-----5-----5----8-----8-----5------3-----3-----3-----1-----1-----1-
|-----6-----6----------6-----6------------4-----4-----------2-----2-----
|-7-----7-----7---7------7-----7-----5------5-----5-----3-----3-----3---
|-----------------------------------------------------------------------
|------------------------------------------------------------------------

Play the above 4x, then after the 4th time play:
|----
|-5--
|-6--
|-7--
|----
|----

During the sub-intro the chords go: Am C G

1st VERSE:
Am C G
Twister oh does anyone see through you
Am C G
You're a twister oh, an animal
Am C
But you're happy now
G
I didn't go along with you
Am C G
So happy now
Am C G
But you're going to have to hold on hold on
Am C G
Or we're going to have to move on move on

CHORUS:
Amaj7 Em Am
I feel alright
Am
And I cried so hard
Amaj7 Em
The ridiculous thoughts, oh-oh
Am
I feel alright.

2nd VERSE:
Twister oh, I shouldn't have trusted you
twister oh na na na na
It's not going to happen no
You're not going to make fun of me
Happen no na na na na

But you're going to have to hold on
hold on
Or we're going to have to move on
move on

REPEAT CHORUS

During the end when she's singing 
"You're gonna have to hold on" over and over, 
continue with the Amaj7 Em Am progression.

Комментарий автора:

Chord explanation:
   Am     C      G    Amaj7
|----- |----- |--3-- |-----
|--1-- |--1-- |--3-- |--1--
|--2-- |----- |----- |--2--
|--2-- |--2-- |----- |--3--
|----- |--3-- |--2-- |-----
|----- |----- |--3-- |-----
 
 

Видео