Cranberries - You And Me, аккорды

Прокрутка
Тональность
Шрифт
100
Intro

riff-1
Let ring
e|---------1-----1---|-------------------|
B|---3-------3-----3-|---4-----3-----3---| Repeat this all the song
G|-----3-------3-----|-----3-----3-----3-| except chorus.
D|-1-------0-----0---|---------0---0-----| 
A|-------3-----------|-3-----3-----------| 
E|-------------------|-------------------|

e|---------1-----1---|---------------------||    |---------------------|
B|---3-------3-----3-|---4-----3-----3h4p3-||    |---4-----3-----3/4-|
G|-----3-------3-----|-----3-----3---------|| or |-----3-----3---------|
D|-1-------0-----0---|---------0---0-------||    |---------0---0-------|
A|-------3-----------|-3-----3-------------||    |-3-----3-------------|
E|-------------------|---------------------||    |---------------------|

This is another way to play the intro (riff-1)

III........ <=Cegilla en el 3er traste
e|-------------------|-------------------|
B|---------6-----6---|---4-----3-----3---| Repeat this all the
G|---7-------7-----7-|-----5-----3-----3-| song except chorus.
D|-----8-------8-----|-------------5-----| 
A|-6-----6-5-----5---|-3-----3-5-----5---| 
E|-------------------|-------------------|

III..........
e|-------------------|---------------------||
B|---------6-----6---|---4-----3-----3h5p3-||
G|---7-------7-----7-|-----5-----3---------||
D|-----8-------8-----|-------------5-------||
A|-6-----6-5-----5---|-3-----3-5-----5-----||
E|-------------------|---------------------||

Lyric:
riff-1
I'm not going out tonight 'cos I don't want to go
I am staying at home tonight 'cos I don't want to know
You revealed a world to me and I would never be
Dwelling in such happiness, your gift on purity
Eh-ee-oh, eh-ee-oh, eh-ee,oh, eh-ee-oh X 2

Chorus:

G# A# Dm (A#) Gm G# A#
Aahh, you and me it will always be
Dm (A#) Gm G# A#
You and me Forever be,
Dm (A#) Gm G# A# Dm (A#) Gm
Eternally it will always be You and me
riff-1
Taylor, Taylor, Taylor, Taylor

riff-1
I don't pay attention to the ones who never cared
Find your onw direction 'cos there's sweetness in the air
You will be the world to me and I will always be
Dwelling in this happiness, your gift of purity
Eh-ee-oh, eh-ee-oh, eh-ee,oh, eh-ee-oh X 2

Chorus

G# A# Dm (A#) Gm G# A#
Aahh, you and me it will always be
Dm (A#) Gm G# A#
You and me Forever be,
Dm (A#) Gm G# A#
Eternally it Will always be
Dm (A#) Gm
You and me
G# A# Dm (A#) Gm
Always be You and me
G# A# Dm (A#) Gm
Forever be, Eternally
G# A# Dm (A#) Gm
It will always be You and me
G# A# Dm (A#) Gm
Forever be, Eternally
Riff-1
Taylor, Taylor X 4
 
 

Видео