Cranberries - How, аккорды

Прокрутка
Тональность
Шрифт
100
Intro/Verse:
e|--------------------------------|
B|--------------------------------|
G|--------------------------------|
D|--------------------------------|
A|--7-7-7-7-------5-5-5-5---------|
E|----------8-8-8---------7-8-10--|

Pre-Chorus:
e|------------------------------------------|
B|------------------------------------------|
G|------------------------------------------|
D|------------------------------------------|
A|------------5--5-5-5------------5--5-5-5--|
E|--8--8-8-8------------8--8-8-8------------|

Chorus:
e|----------------|
B|----------------|
G|----------------|
D|----------------|
A|--7-7--------5--|
E|-------8--5-----|
 
 

Видео