Cranberries - Wake Up And Smell The Coffee, аккорды

Прокрутка
Тональность
Шрифт
100
Part 1
--------------------------------------------------------------------------
--------------------------------------------------------------------------
-5-5--5-5--5-5--5-7-7-8--7------------------------------------------------
----------------------------5-5--5-5--5-5--5-7-7-8--7---------------------

--------------------------------------------------------------------------
--------------------------------------------------------------------------
----------------------5-----5-5--5-5--5-5--5-7-7-8--7---------------------
-6-6--6-6--6-6--6-8-8----8------------------------------------------------

Part 2
--------------------------------------------------------------------------
--------------------------------------------------------------------------
---------8--5--5-5--5------------------5--5-------------------------------
-6--6-6---------------6--6-6--6--8--8-------------------------------------

Part 3
--------------------------------------------------------------------------
--------------------------------------------------------------------------
-5-5--5-5--5-5--5-7-7-8--7------------------------------------------------
----------------------------5-5--5-5--5-5--5-7-7-8--7---------------------

--------------------------------------------------------------------------
--------------------------------------------------------------------------
----------------------5---------------8--7-5------------------------------
-6-6--6-6--6-6--6-8-8----8--8-8-8-8-8-------------------------------------

Order:
Part 1 (x5)
Part 2 (x2)
Part 1 (x1)
Part 3 (x1)
Part 1 (x3)
Part 2 (x2)
Part 1 (x3)
Part 3 (x1)
 
 

Видео