Cranberries - Time Is Ticking Out, аккорды

Прокрутка
Тональность
Шрифт
100
INTRO:
E|---------------------------------2--2-----3--3----2--2----3--3-|
B|2-3---2-3---2-3---2-3-----------3-3------3-3-----3-3-----3-3---|
G|-------------------------------2---2----2---2---2---2---2---2--|
D|------------------------------0--------0-------0-------0-------|
A|2-2---2-2---2-2---2-2------------------------------------------|
E|---------------------------------------------------------------|

VERSE:
E|2-2----2-2-|
B|3-3----3-3-|
G|4-4----4-4-|
D|4-4----4-4-|
A|-----------|
E|-----------|

CHORUS:
E|---2--2-----3--3----2--2----3--3-|
B|--3-3------3-3-----3-3-----3-3---|
G|-2---2----2---2---2---2---2---2--|
D|0--------0-------0-------0-------|
A|---------------------------------|
E|---------------------------------|
 
 

Видео