Cranberries - Zombie, аккорды

Прокрутка
Тональность
Шрифт
100
Verse/Chorus:
G|----------------------------------------------------
D|----------------------------------------------------
A|-333-33-5-3-------------------3-2-------------------
E|--000-000020------------5-3-333-333-53-22-----3-2-0-

Variations:
G|--------------------------------------------------------------
D|--------------------------------------------------------------
A|-333-33-5-3-------------------3-2-----------------------------
E|--000-000020------------5-3-333-333-53-22-----3-2-0-222-22-22-

Outro:
G|----------------------------
D|----------------------------
A|-333-33-5-3-----------------
E|--000-000020------------5-3-

Комментарий автора:

Lyrics:
Another head hangs lowly
Child is slowly taken
And the violence caused such silence
Who are we mistaken

but you see, it´s not me
it´s not my family
in your head, in your head
they are fighting

Chorus:
With their tanks, and their bombs,
and their bombs, and their guns
In your head, in your head they are cryin´
In your head, In your head
Zombie, etc.
What´s in your head in your head, in your head
Zombie, etc.

Another mother´s breakin´
heart is taking over
when the violence causes silence
we must be mistaken
it´s the same old theme since 1916
in your head,
in your head they´re still fightin´
 
 

Видео