Cranberries - Zombie, аккорды

Прокрутка
Тональность
Шрифт
100
Сначала играется боем:
E---0-0-0-0-0-0-0-0--------------------0--0--0--0--0--0--0--0-
B---0-0-0-0-0-0-0-0--------------------0--0--0--0--0--0--0--0-
G---0-0-0-0-0-0-0-0--------------------0--0--0--0--0--0--0--0-             
D---2-2-2-2-2-2-2-2-------------------10-10-10-10-10-10-10-10-
A---2-2-2-2-2-2-2-2-------------------10-10-10-10-10-10-10-10-
E---0-0-0-0-0-0-0-0--------------------8--8--8--8--8--8--8--8-

E---0-0-0-0-0-0-0-0--------------------0-0-0-0-0-0-0-0-
B---0-0-0-0-0-0-0-0--------------------0-0-0-0-0-0-0-0-
G---0-0-0-0-0-0-0-0--------------------0-0-0-0-0-0-0-0-
D---5-5-5-5-5-5-5-5--------------------4-4-4-4-4-4-4-4-
A---5-5-5-5-5-5-5-5--------------------4-4-4-4-4-4-4-4-
E---3-3-3-3-3-3-3-3--------------------2-2-2-2-2-2-2-2-

А затем начинается тяжелая часть:
E--------------------------------------------------------------------
B--------------------------------------------------------------------
G--------------------------------------------------------------------
D---2-2-2-2-2-2-5-4-10-10-10-10-10-10-10-5-5-5-5-5-5-5-5-4-4-4-4-4-4-
A---2-2-2-2-2-2-5-4-10-10-10-10-10-10-10-5-5-5-5-5-5-5-5-4-4-4-4-4-4-
E---0-0-0-0-0-0-3-2--8--8--8--8--8--8--0-3-3-3-3-3-3-3-0-2-2-2-2-2-2-

Комментарий автора:

Вот моя версия подбора к этой всеми любимой песне.

И так по кругу, я уж не помню сколько раз надо:)

Ну а бас можно сыграть на шестой струне, как написано чуть выше в табулатуре:)
 
 

Видео