Cranberries - Empty, аккорды

Прокрутка
Тональность
Шрифт
100
E---------12-----7------------11------7-----------------9------7-
B-10---------------------9-----------------------10-------------- 
G---------------------------------------------------------------- 
D---------------------------------------------------------------- 
A---------------------------------------------------------------- 
E---------------------------------------------------------------- 
 
E---------9------7-------------12------7----------------11------7- 
B-10--------------------10-----------------------9----------------
G----------------------------------------------------------------- 
D----------------------------------------------------------------- 
A----------------------------------------------------------------- 
E----------------------------------------------------------------- 
 
E--------9-----7-----------9------7-
B-10----------------10-------------- 
G----------------------------------- 
D----------------------------------- 
A----------------------------------- 
E----------------------------------- 
 
This is where the acoustic guitar comes in:  
piano  
E----------9------7-----------------------------11-------
B-10-------------------------------------9-------------7- 
G-------------------------------------------------------- 
D-------------------------------------------------------- 
A-------------------------------------------------------- 
E-------------------------------------------------------- 
 
acous 
E-----------------------------------------------------------------
B---------5---------------5---------------------4------------4---- 
G-2--------------4---------------2------1-------------4---------1-
D-----------------------------------------------------------------
A----------------------------------------------------------------- 
E----------------------------------------------------------------- 
 
piano 
E----------9-------------------------------------9------- 
B-10--------------7----------------------10------------7- 
G-------------------------------------------------------- 
D-------------------------------------------------------- 
A-------------------------------------------------------- 
E-------------------------------------------------------- 
 
acous 
E-------------------------------------------------------------
B---------2---------------2---------------------2--------2----
G-2---------------4-------------2--------2------------4-----2- 
D-------------------------------------------------------------
A-------------------------------------------------------------
E-------------------------------------------------------------
 
piano 
E----------9------7-----------------------------11--------
B-10-------------------------------------9-------------7-- 
G--------------------------------------------------------- 
D--------------------------------------------------------- 
A--------------------------------------------------------- 
E--------------------------------------------------------- 
 
acous 
E----------------------------------------------------------------
B---------5---------------5---------------------4------------4---
G-2--------------4---------------2------1-------------4--------1-
D---------------------------------------------------------------- 
A---------------------------------------------------------------- 
E----------------------------------------------------------------
 
piano 
E----------9-------------------------------------9-------
B-10--------------7----------------------10------------7- 
G--------------------------------------------------------
D--------------------------------------------------------
A--------------------------------------------------------
E--------------------------------------------------------
 
acous 
E----------------------------------------------------------------- 
B---------2---------------2---------------------2------------2----
G-2---------------4-------------2--------2------------4---------2-
D-----------------------------------------------------------------
A----------------------------------------------------------------- 
E-----------------------------------------------------------------
 
 

Видео