Cranberries - Animal Instinct, аккорды

Прокрутка
Тональность
Шрифт
100
Solo 1:
e--------------------------------------------------
B--------------------------------------------------
G--------------------------------------------------
D--9h10--9h10--9--9s10--12--12--12--12--10----9h10-
A--------------------------------------------------
E--------------------------------------------------

e--------------------------
B--------------------------
G--------------------------
D--9h10--9--10--5--5--5--7-
A--------------------------
E--------------------------

Solo 2:
e--------------------------------------------------
B--------------------------------------------------
G--------------------------------------------------
D--9h10--9h10--9--9s10--12--12--10--10--10----9h10-
A--------------------------------------------------
E--------------------------------------------------

e-----------------------------------------------------
B-----------------------------------------------------
G-----------------------------------------------------
D--9h10--9--9s10--5--5--7--7--5--5--5--7--7--9---9--9-
A-----------------------------------------------------
E-----------------------------------------------------

e-----------------------------------------------------
B-----------------------------------------------------
G-----------------------------------------------------
D--9--7--7--7----9--9--9--7--7--7----5--5--5--7--7--7-
A-----------------------------------------------------
E-----------------------------------------------------

e-----------------------------------------------------
H-----------------------------------------------------
G-----------------------------------------------------
D--9h10--9h10--9--9s10--12--12--12s14--14--14--14--14-
A-----------------------------------------------------
E-----------------------------------------------------

e----------------------------------------------------
B----------------------------------------------------
G----------------------------------------------------
D--14--12--12--12--10--10--10--9--9--9----5--5--5--7-
A----------------------------------------------------
E----------------------------------------------------

e----------------------------------------------------
B----------------------------------------------------
G----------------------------------------------------
D--7--7---5--5--5--7--7--7---9--9--9--7--7--7---5--5-
A----------------------------------------------------
E----------------------------------------------------

e-------------
H-------------
G-------------
D--5--7--7--7-
A-------------
E-------------
 
 

Видео