Cranberries - Animal Instinct (btab), аккорды

Прокрутка
Тональность
Шрифт
100
Intro:                                            Verse:
G||-------------------|--------------------------||------------------------|
D||-------------------|--7--7--7--7--------------||*-----------------------|
A||----------------5--|--------------5--5--5--5--||*--7------7----7--5-----|
E||-------------------|--------------------------||---------------------8--|
                                                                    
-----------------------|----------------------|---------------------|
-----------------------|----------------------|---------------------|
-----------------------|-------------------4--|--5------5----5------|
--5------5----5--6--7--|--8------8----8-------|---------------------|
                                              
-----------------------|-----------------------|----------------------|
-----------------------|-----------------------|----------------------|
--7------7----7--5-----|-----------------------|-------------------4--|
--------------------8--|--5------5----5--6--7--|--8------8----8-------|

                         6x  It's just the...                                             
-------------------------||-----------------------|----------------------|
------------7--7--7--7--*||*----------------------|-------------------3--|
--5------5--------------*||*-------------------5--|--5------5----5-------|
-------------------------||---3------3----3-------|----------------------|

                                                 x2                    
----------------------|--5--7--7--7--5--7--5------|
--5------5----5----5--|-----------------------5--*|
----------------------|--------------------------*|
----------------------|---------------------------|
 
 

Видео