Cranberries - Forever Yellow Skies, аккорды

Прокрутка
Тональность
Шрифт
100
Tabbed By : Zeljko Matovic(Z-Smak)
e-mail: KC_nut@hotmail.com

Its simple enough
Tuning:EADG

Remember listen to the song for timing and also dont count on the actual
tab to tell you how many times you should play each fret

No bass in drum intro
hammer on=h
slide=/

Whole song except the end

G|-----------------------------------------------------|
D|-----------------------------------------------------|
A|---------------------3-3-3-3-3333333333--------------|
E|-8/-3-3-3--3-33333333--------------------------------|


End riff at 3:27

G|---------------------------------------------|
D|---------------------------------------------|
A|------0h33333333333--------------------------|
E|-3-3-----------------------------------------|

One retarded ending
 
 

Видео