Cranberries - Just My Imagination, аккорды

Прокрутка
Тональность
Шрифт
100
                              Just My Imagination                               


                                                                 The Cranberries
Tab by Francesco 'BMCL' Miceli
For information or insults, G.Miceli@iol.it

    Intro                     Verse                                                       
G||------------------------||-------------------------|------------------------|
D||------------------------||*---------------------1--|--3----3---3---3--1-----|
A||------------------------||*--1----1---1---1--3-----|---------------------1--|
E||--3----3---1---1--3--0--||-------------------------|------------------------|


                                                2x   Chorus                       
------------------------|-------------------------||-------------------------|
------------------------|------------------------*||*---------------------1--|
--3----3---3---3--1-----|---------------------0--*||*--1----1---1---1--3-----|
---------------------1--|--3----3---1---1--3------||-------------------------|


                                                                           3x
---------------------3--|--5----5---5---5--3-----|-------------------------||
--3----3---3---3--5-----|---------------------3--|--5----5---3---3--------*||
------------------------|------------------------|------------------5--3--*||
------------------------|------------------------|-------------------------||


After:
Verse X2
Chorus X4
Verse X2
Chorus ad Lib.
 
 

Видео