Cranberries - Ode To My Family, аккорды

Прокрутка
Тональность
Шрифт
100
#----------------------------------PLEASE NOTE---------------------------------#
#This file is the author's own work and represents their interpretation of the #
#song. You may only use this file for private study, scholarship, or research. #
#------------------------------------------------------------------------------#


Song - Ode To My Family
Band - The Cranberries
Album - No Need To Argue

Tabbed by Philip (philipheaven@hotmail.com)

0:01

G: ------------------------------------------
D: -----------------------------------------.
A: 5--5------2--2--------------------------3.
E: --------------------2--2------3---3-5-5---

0:53

G: ------------------------------------------
D: -----7-7-------4-4-----------------------.
A: 5--5------2--2--------------------------3.
E: --------------------2--2------3---3-5-5---

1:13

G: ----------------------------------------------------
D: ----7--7-5--------4--4-2---------------------------.
A: 5-5--------7--2-2--------4----------------------3-3.
E: ----------------------------2--2---2-3-3--3-5-5-----

1:53

G: -----------------------------------------
D: -----7-7-------4-4-----------------------
A: 5--5------2--2--------------------------3
E: --------------------2--2------3---3-5-5--

2:04

G: ------------------------------------------
D: -----------------------------------------.
A: 5--5------2--2--------------------------3.
E: --------------------2--2------3---3-5-5---

2:24

G: ------------------------------------------
D: -----7-7-------4-4-----------------------.
A: 5--5------2--2--------------------------3.
E: --------------------2--2------3---3-5-5---

2:45

G: ----------------------------------------------------
D: ----7--7-5--------4--4-2---------------------------.
A: 5-5--------7--2-2--------4----------------------3-3.
E: ----------------------------2--2---2-3-3--3-5-5-----

That's the full song. Any questions or comments e-mail me
Enjoy
 
 

Видео