Cranberries - Promises, аккорды

Прокрутка
Тональность
Шрифт
100
Intro: Em Bm D C

Verse: Em Bm D C

Verse Guitar2:
E--2--------2-----2-----------2-----3-2-0-----
B----3--------3-----------3-----3---------3---
G------4--------4-------2---2-----2---------2-
D--------4------------0-----------------------
A---------------------------------------------
E---------------------------------------------

Chorus: Em Bm D C

Bridge: 
Guitar1: Em Bm D C

Guitar1: strums the verse chords

Guitar2 Solo:
Riff1:                       Riff2:
E|-------------------------- E|-------------------------
B|-/12-12-12-12-12--10-8---- B|-/12-12-12-12-12--10-8---
G|-----------------------9-- G|-----------------------9-
D|-------------------------- D|-------------------------
A|-------------------------- A|-------------------------
E|-------------------------- E|-------------------------

Riff 3:
E|---------------------------
B|-/13-13-13-13-13--12-10----
G|------------------------9--
D|---------------------------
A|---------------------------
E|---------------------------

Riff 5:
E-------------------------------------------------------
B---------------------------------10-------10-------10--
G--12--9-9-9-12--9-9-9-12--9-9-9-----9-9-9----9-9-9-----
D-------------------------------------------------------
A-------------------------------------------------------
E-------------------------------------------------------

E|--------
B|--------
G|-9-9-9--
D|--------
A|--------
E|--------

Guitar2 ends on  E|-~---  Guitar1  Em
                 B|-12--
                 G|-----
                 D|-----
                 A|-----
                 E|-----

Order:
Intro
Verse
Chorus
Bridge
Verse
Chorus
Riffs: 1, 2, 2, 3, 1
Chorus: guitar1 guitar2 riff: 1
Chorus
Riffs: 5, 3, 2, 2, 3, 1, 2, 2, 3
 
 

Видео