Cranberries - You And Me, аккорды

Прокрутка
Тональность
Шрифт
100
Author: Cranberries
Title: You and me
Album: Bury the hatchet
Tabbed by: Daniele Pelliccia

Verse
|-----------|--------------|
|-1--3------|----3-5-5-5-3-|
|------1-1--|-3------------|
|-----------|--------------|

Chorus
|---------------|
|---------------|
|---3-3--1--3-3-|
|-4-------------|

Corrections or suggestions welcome.  dpelliccia@katamail.com
 
 

Видео