Cranberries - Zombie, аккорды

Прокрутка
Тональность
Шрифт
100
It start the bass part with a slide:
E|--12/-----

Then the whole song goes like this (until the end):
G-----------------------------------------------------------------
D-----------------------------------------------------------------
A-----------------3-3-3-3-3-3-5-3---------------------------------
E-0-0-0-0-0-0-3-0-----------------3-3-3-3-3-3-5-3-2-2-2-2-2-2-3-2-

Then somewhere at the end, play this over and over:
G----------------------------------
D----------------------------------
A-----------------3-3-3-3-3-3-5-3--
E-0-0-0-0-0-0-3-0------------------
 
 

Видео