Cranberries - Zombie (btab), аккорды

Прокрутка
Тональность
Шрифт
100
Intro:
G|-----
D|-----
A|-----
E|-12-

Right into Chorus Riff: x3
G------------------------------------------------------------------
D------------------------------------------------------------------
A------------------3-3-3-333-3-5-3---------------------------------
E--0-0-0-000-0-3-0-----------------3-3-3-333-3-5-3-2-2-2-222-3-2-3- 

Verse: x4
G------------------------------------------------------------------
D------------------------------------------------------------------
A------------------3-3-3-3-3-3-3-3---------------------------------
E--0-0-0-0-0-0-0-0-----------------3-3-3-3-3-3-3-3-2-2-2-2-2-3-2-3-

Chorus: x4
G------------------------------------------------------------------
D------------------------------------------------------------------
A------------------3-3-3-333-3-5-3---------------------------------
E--0-0-0-000-0-3-0-----------------3-3-3-333-3-5-3-2-2-2-222-3-2-3- 

Verse: x4
G------------------------------------------------------------------
D------------------------------------------------------------------
A------------------3-3-3-3-3-3-3-3---------------------------------
E--0-0-0-0-0-0-0-0-----------------3-3-3-3-3-3-3-3-2-2-2-2-2-3-2-3-

Chorus: x2 
G------------------------------------------------------------------
D------------------------------------------------------------------
A------------------3-3-3-333-3-5-3---------------------------------
E--0-0-0-000-0-3-0-----------------3-3-3-333-3-5-3-2-2-2-222-3-2-3-

Chorus B: x2
G------------------------------------------------------------------
D------------------------------------------------------------------
A------------------3-3-3-333-5-3-0---------------------------------
E--0-0-0-000-0-3-0-----------------3-3-3-333-3-3-5-2-2-2-222-3-2-3-

Interlude: x2
G------------------------------------------------------------------
D------------------------------------------------------------------
A------------------3-3-3-335-3-0-------------------3-3-3-335-3-0---
E--0-0-0-000-0-3-0---------------3-0-0-0-000-0-3-0---------------3-

Chorus B: x2
G------------------------------------------------------------------
D------------------------------------------------------------------
A------------------3-3-3-333-5-3-0---------------------------------
E--0-0-0-000-0-3-0-----------------3-3-3-333-3-3-5-2-2-2-222-3-2-3-

Chorus: x2
G------------------------------------------------------------------
D------------------------------------------------------------------
A------------------3-3-3-333-3-5-3---------------------------------
E--0-0-0-000-0-3-0-----------------3-3-3-333-3-5-3-2-2-2-222-3-2-3-

Ending Bass Solo:
G------------------------------------------------------------------
D------------------------------------------------------------------
A------------------3-3-3-335-3-0-------------------3-3-3-335-3-0---
E--0-0-0-000-0-3-0---------------3-0-0-0-000-0-3-0---------------3-

G------------------------------------------------------------------
D------------------------------------------------------------------
A------------------3-3-3-335-3-0-----------------------------------
E--0-0-0-000-0-3-0---------------3-0-------------------------------

Комментарий автора:

Tabbed By: fr3n_skidrow
 
 

Видео