Cranberries - Hollywood, аккорды

Прокрутка
Тональность
Шрифт
100
Intro: clean
E|------0--------0--------0------0---|-----0------0------0------0-|
B|----0--0-----1--1-----1--1---1---1-|----0--0---1--1---1--1---1--|
G|--0---------0--------2------2------|---0------0------2------2---|
D|-----------------------------------|----------------------------|
A|-----------------------------------|----------------------------|
E|-----------------------------------|----------------------------|

1st part with overdrive distorsion and chorus: 
Em - C - Am - Am

Verse: clean
Em - C - Am - Am

Mini solo:
E|---7-7-7--7-7--5---5--5--5--5--5--5-|
B|--5-5-5--5-5-5---7--7--7--7--7--5---| x4
G|------------------------------------|
D|------------------------------------|
A|------------------------------------|
E|------------------------------------|
 
 

Видео