Cranberries - Stars, аккорды

Прокрутка
Тональность
Шрифт
100
Intro:
G|------------3-2---0------------3-2---0----232---0--|
D|---------------3-3-0--------------3-3-0--0---3-3-0-|
A|-3-33-5-55-1--------3-33-5-55-1--------33----------|
E|---------------------------------------------------|
 
Verse:
G|------------32-------------32--------------------------|
D|----0-0-------3----0-0-------3---0-0---3-3---0-0---3-3-|
A|-3-3---1-1-3---3-3----1-1-3---3-3---1-1---3-3---1-1----|
E|-------------------------------------------------------|

Bridge:
G|--------------------------------------------------------|
D|-3-33-2-22-0-00-3-33-2-22-0-00-33332222-----------------|
A|---------------3--------------3--------1111111111111111-|
E|--------------------------------------------------------|
 
 

Видео