Дягилева Янка - Особый резон, аккорды

Прокрутка
Тональность
Шрифт
100
Вступление: Am F Dm E

Am                F                       Dm
По перекошенным ртам, продравшим веки кротам,
               F  E
Видна ошибка ростка.
Am                F                       Dm
По близоруким глазам, не веря глупым слезам,
               F  E
Ползет конвейер песка.

   C                  F                    Am
  Пока не вспомнит рука, дрожит кастет у виска,
                  F  E
  Зовет косая доска.
  Am                F  E Am            F  E
  Я у дверного глазка, под каблуком потолка.



Am           F                   Dm
У входа было яйцо или крутое словцо.
          F  E
Я обращаю лицо.
Am                F                     Dm
Кошмаром дернулся сон. Новорожденный масон
               F  E
Поет со мной в унисон.

  C                  F                  Am
  Крылатый ветер вдали верхушки скал опалил,
                     F  E
  А здесь ласкает газон.
  Am            F  E
  На то особый резон.
	
     Am               F
     На то особый отдел,
                     Dm
     На то особый режим,
                     F  E
     На то особый резон.

Соло: Am F Dm E
      D|--7----------------|--7----------------|
      A|----8-7--7/8-8-7/8-|----8-7--7/8-8-7/8-|
      F|-------7-----------|-------6-----------|

      D|--7----------------|--7----------------|
      A|----8-7--7/8-8-7/8-|----8-7--7/8-8-7t8-|
      F|-------7-----------|-------6-----------|

     A                  F                  Dm
     Проникший в щели конвой заклеит окна травой,
                     F  E
     Нас поведут на убой.
     Am                  F                  Dm
     Перекрестится герой, шагнет раздвинутый строй,
                     F  E
     Вперед, за Родину в бой!
     C                  F                  Am
     И сгинут злые враги, кто не надел сапоги,
                     F  E
     Кто не простился с собой,
                     F  E
     Кто не покончил с собой,
     Am            F  E
     Всех поведут на убой.

     Am               F
     На то особый отдел,
                     Dm
     На то особый режим,
                     F  E
     На то особый резон.

Outro = Соло: x2
Am F Dm E
D|--7----------------|--7----------------|
A|----8-7--7/8-8-7/8-|----8-7--7/8-8-7/8-|
F|-------7-----------|-------6-----------|

D|--7----------------|--7----------------|
A|----8-7--7/8-8-7/8-|----8-7--7/8-8-7t8-|
F|-------7-----------|-------6-----------|
 
 
Свернуть Распечатать

Видео