Danzig - Twist Of Cain, аккорды

Прокрутка
Тональность
Шрифт
100
Song: Twist of Cain
Artist: Danzig
Album: Danzig
Tabbed by R. Camacho

Note: I didn't have the song to go by, but I used to play 
this song when it first came out.  I tabbed it based on 
my memory of how I used to play it. 


 (Play 2X)Chorus                                  (Play 2X)
G[-------]------------------------------------------------]
D[-------]------------------------------------------------]
A[-6-6-6-]-7-0-6-0-3-00-7-0-6-0-3-00-77-0-6-0-3-000-6-6-6-]
E[-------]------------------------------------------------]

 Verses         (Play 3X)
G[----------------------]------------------]
D[----------------------]------------------]
A[-------------------6-]------------6-6-6-]
E[-3-555-8888-555-888---]-3-555-8888-------]


Bridge
G[------------------------------]
D[------------------------------]
A[-00-(0)-3-------------3333-55-]
E[----------5-3-5-4-(4)---------]

Ending
G[----------------------------]
D[----------------------------]
A[-0 (0)--0-(0)--0-(0)--0-(0)-]
E[----------------------------]
 
 

Видео