Darkness - Giving Up, аккорды

Прокрутка
Тональность
Шрифт
100
The Darkness
Giving Up

Havent got the solos but most of the other parts are pretty accurate.
you can work out the rhythms by listening to it

CAPO 2ND FRET
slight distortion

intro/verse/chorus
e----------------------------------------------------
b----------------------------------------------------
g--2-2--2-2--2--2-2--2-2--2--2-2--2-2-2--2-----------
D--2-4--2-4--2--2-4--2-4--2--2-4--2-4-2--2---------2-
A--0-0--0-0--0--0-0--0-0--0--0-0--0-0-0--0---------0-
E-------------------------------------------0-2-4----

fill
e---------------------------------
b---------------------------------
g---------------------------------
D-------2----------------------2--
A-------0---0-0----------------0--
E-0-2-4---------2--0--2--0-2-4----


pre-chorus
e-------------------2-----
b-------------------3-----
g--1----1--1--1--1--2--2--
D--2----2--2--2--2--0--2--
A--2----2--2--2--2-----0--
E--0----0--0--0--0--------

thats all for the mo, enjoy