Darkness - I Believe In A Thing Called Love, аккорды

Прокрутка
Тональность
Шрифт
100
intro/verse
e----------------------------------------------------------------------
b----------------------------------------------------------------------
g----------------------------------------------------------------------
D--------------------------------------------4-----7--9-9----9--2-2---
A--------------------------------------------4-----7--9-9----9--2-2---
E--2-----5--7-7----7--0-0---7-7--5-4~5--7~--2-----5--7-7----7--0-0---

----------------|
----------------|
----------------|
-9-9--7---------|
-9-9--7---------|
-7-7--5-4~5--7~-|

bridge       PM=============              PM=============
e---------------------------------------------------------
b---------------------------------------------------------
g---------------------------------------------------------
D--2---4-----4-4-4-4-4-4-4-4----2---4-----4-4-4-4-4-4-4-4-
A--2---4-----4-4-4-4-4-4-4-4----2---4-----4-4-4-4-4-4-4-4-
E--0---2-----2-2-2-2-2-2-2-2----0---2-----2-2-2-2-2-2-2-2-

                         PM================(slowly release)
--------------------------------------------|
--------------------------------------------|
--------------------------------------------|
-2---4----7---8---9------9-9-9-9-9-9-9-9-9--|
-2---4----7---8---9------9-9-9-9-9-9-9-9-9--|
-0---2----5---6---7------7-7-7-7-7-7-7-7-7--|

chorus
e---------------------------------|
b---------------------------------|
g---------------------------------|
D---------------------------------|
A---------------------------------|
E--0--2-4-5---5-4-2---2-5-7--9-7--|

and thats it im afraid, solo shud be comin soon, until then enjoy!