Darkness - I Believe In A Thing Called Love, аккорды

Прокрутка
Тональность
Шрифт
100
-------------------------------------------------------------------------------
		    I BELIEVE IN A THING CALLED LOVE - Darkness
-------------------------------------------------------------------------------

Tabbed by: Matt Bostock
Email:slipknotbos@hotmail.com
Tuning:Drop D

#=Pinch Harmonic
/=Slide Down

Yo dudes... I posted this song like half an hour before this one cus i listened
to the CD and this is more accurate by miles. Check it

INTRO ( AND VERSES )
e|---------------------------------------------------------------------------|
B|---------------------------------------------------------------------------|
G|---------------------------------------------------------------------------|
D|---------------------------------------------------------------------------|
A|-4-x-x-7-9-9-x-x-9-9/-2---9-9-7-7-#6-7-9-11-2------------------------------|
D|-4-x-x-7-9-9-x-x-9-9/-2---9-9-7-7-#6-7-9-11-2------------------------------|

BRIDGE
e|---------------------------------------------------------------------------|
B|---------------------------------------------------------------------------|
G|-2-------------------------------------------------------------------------|
D|-2-------------------------------------------------------------------------|
A|-0--4----------------------------------------------------------------------|
D|----4----------------------------------------------------------------------|
Touckin' Me.... Touchin You....

CHORUS
e|---------------------------------------------------------------------------|
B|---------------------------------------------------------------------------|
G|---------------------------------------------------------------------------|
D|---------------------------------------------------------------------------|
A|-2-4-6-7-6-2-4-6-7-9-11-9--------------------------------------------------|
E|-2-4-6-7-6-2-4-6-7-9-11-9--------------------------------------------------|

And again thats it my friends... cheese out.....