Darkness - Love Is Only A Feeling, аккорды

Прокрутка
Тональность
Шрифт
100
This is a song not to be played aggressively as it is quite slow and romantic.
the verse and pre chorus can all be played on opens, but on the verse, fretted
notes flow better, and on the pre chorus, muting is easier. on the intro, pre
verse and chorus, all the notes can be doubled up if played in quick succession
to give the bass a more striking sound and also on the guitar solo make the bass
line stand out more.
enjoy!


intro/pre verse
G-----------------------------------------------------------------
D-----------------------------------------------------------------
A----------5--------0---------------------5--------0-----0-0------
E--3----------------------2/3-----3-------------------------------


verse (played when drums are played)
G-----------------------------------------------------------------
D--555555-----------------555555----------------------------------
A----------55555------------------555555--------------------------
E-----------------555555------------------5555555-----------------

pre chorus (muted)
G-----------------------------------------------------------------
D-----------------------------------------------------------------
A------------------------5555-------------------------------------
E-00000000-55555555-0000------------------------------------------

chorus/guitar solo
G-----------------------------------------------------------------
D-----------------------------------------------------------------
A--22--------------------55-------00------------------------------
E-------------33--------------------------------------------------

G-----------------------------------------------------------------
D-----------------------------------------------------------------
A--22--------------------55-------00------------------------------
E-------------33---------------------------3~---------------------

the darkness are a great band, so support them whenever you can!!!
any questions, comments or corrections, you know what to do!
thanks a lot, 
Mikey