David Guetta - Titanium, аккорды

Прокрутка
Тональность
Шрифт
100
Intro:
Use Delay with Overdrive and play all notes in muting mode.
E[---------------------------------------------------------------]
B[---------------------------------------------------------------]
G[---------------------------------------------------------------]
D[---------------------------------------------------------------]
A[-----8--10--8-------6--8--6-----8--10--8--11--10--8--10--------]
E[-11-------------6------------8---------------------------11----]

Verse:
     Eb                Bb             Cm               Ab
e|---3------------|----1--------|------3----------|----4---------|
B|---4------------|----3--------|------4----------|----4---------|
G|---3------------|----3--------|------5----------|----5---------|
D|---5------------|----3--------|------5----------|----6---------|
A|---6------------|----1--------|------3----------|----6---------|
E|---x------------|----x--------|------x----------|----4---------|

Chorus:
     Ab                Bb             Gm               Cm
e|---4------------|----1--------|------3----------|-----3--------|
B|---4------------|----3--------|------3----------|-----4--------|
G|---5------------|----3--------|------3----------|-----5--------|
D|---6------------|----3--------|------5----------|-----5--------|
A|---6------------|----1--------|------5----------|-----3--------|
E|---4------------|----x--------|------3----------|-----x--------|

Eb              Bb 
   You shout it loud 
Cm                          Ab
 But I can't hear a word you say 

Eb              Bb              Cm  Ab
   I'm talking loud not saying much 
Eb          Bb      Cm                          Ab
     I'm criticized    but all your bull is brick of shame 
Eb              Bb              Cm   Ab
      You shoot me down, but I get up 

Ab     Bb 
I'm bulletproof nothing to lose 
Gm                 Cm
     Fire away, fire away 
Ab     Bb 
Brick of shame, take your rain 
Gm                 Cm
     Fire away, fire away 
Ab                    Bb 
 You shoot me down but I won't fall 
    Gm  Cm
I am titanium 
Ab                             Bb 
You shoot me down but I won't fall 
     Gm  Cm
I am titanium 

Ab Bb Gm Cm

Eb Bb Cm Ab

Cut me down 
But is you who had offered there to fall 
Ghost town, haunted love 
Raise your voice, sticks and stones may break my bones 
I'm talking loud not saying much 

Ab Bb Gm Cm

I'm bulletproof nothing to lose 
Fire away, fire away 
Brick of shame, take your rain 
Fire away, fire away 
You shoot me down but I won't fall 
I am titanium 
You shoot me down but I won't fall 
I am titanium 
I am titanium... 

Ab Bb Gm Cm
Stone-hard, machine gun 
Firing at the ones who rise 
Stone-hard, thus bulletproof 

Ab Bb Gm Cm

You shoot me down but I won't fall 
I am titanium 
You shoot me down but I won't fall 
I am titanium 
You shoot me down but I won't fall 
I am titanium 
You shoot me down but I won't fall 
I am titanium
 
 

Видео